Creed - One Last Breath Chords & Tabs

 

One Last Breath Chords & Tabs

Creed Chords & Tabs

Version: 5 Type: Bass Tab 0 ratings
1 star 2 stars 3 stars 4 stars 5 stars
comments

One Last Breath Bass Tab

Normal tuning
I've seen other tabs that were just wrong, so I tabbed it myself.
The bass doesn't enter until the second verse.

Verse:

G-------------------------------------------------
D-------------------------------------------------
A-/55-5-5-0-0/10\-/55-5-5-00/12\2-2---------------
E-----------------------------------3-------------

G-------------------------------------------------
D-------------------------------------------------
A--55-5-5-0-0-02--2----55-5-5-00/12\2-2-----------
E-------------------3-------------------3---------

G-------------------------------------------------
D-------------------------------------------------
A-55-5-5-00/12\2/10-10-12-10\-55-0012\/14-14-10---
E-------------------------------------------------

Chorus:
[ Tab from: http://www.guitartabs.cc/tabs/c/creed/one_last_breath_btab_ver_5.html ]
G--------------------------------
D--------------------------------
A-55-5-55-------22-2-2-----------    
E---------2-222--------3-33-3-3--      4x

Bridge:

G--------------------------------
D--------------------------------
A-2-22-22---------2-22-22--------
E---------33-33-3---------33-33-3

G-----------------------------------------------
D-----------------------------------------------
A---------5-555-55555-0-000-00-2-22-22----------
E-0-0-3-3------------------------------33-33-3--   2x

Clean chorus (guitar only)

chorus:2x

Alternate chorus:

G-------------------------------------
D-------------------------------------
A-55-5-55---------2-22-22/10-10-12-10-
E---------2-22-22---------------------

chorus: 1x

and it's something like that.
Comments