Creed - One Last Breath Chords & Tabs

 

One Last Breath Chords & Tabs

Creed Chords & Tabs

Version: 2 Type: Bass Tab 0 ratings
1 star 2 stars 3 stars 4 stars 5 stars
comments

One Last Breath Bass Tab

One Last Breath

Verse (In at 1:02)
G------------------------------------------------------------------------------------
D------------------------------------------------------------------------------------
A-5--55-55------------2--22-22------5--55-55-5-------------2-------------------------
E---------------5----5-------------3--------------------5------------3---------------
[ Tab from: http://www.guitartabs.cc/tabs/c/creed/one_last_breath_btab_ver_2.html ]
Chorus (In at 1:47)
G------------------------------------------------------------------------------------
D------------------------------------------------------------------------------------
A-5-55-55---------2--2---------------------------------------------------------------
E-----------2--2---------3-----------------------------------------------------------

Repeat

Bridge (Sad eyes follow me…)

G------------------------------------------------------------------------------------
D------------------------------------------------------------------------------------
A--------------5-------2-2-----------------------------------------------------------
E-0-0--3---3------5-5------3-3-------------------------------------------------------

Repeat


Didn’t really include timing…and this is my first Bass tab, so please bear with me. If you have any changes or suggestions, let me know at RichyChuck@Yahoo.com 
I’m pretty sure I got all the notes right, just not sure about the number of times to play. 
Comments