Creed - Never Die Chords & Tabs

 

Never Die Chords & Tabs

Creed Chords & Tabs

Version: 4 Type: Tab

Never Die Tab

Tunning: Drop D.

Band : (one of the GREATEST band ever...CREED.)

Song: Never Die.

Intro:

--------------------------------------------|
--------------------------------------------|
--8b---3b---7b---2b-------------------------|
--------------------------------------------|
--------------------------------------------|
--6b---1b---5b---0--------------------------|
[ Tab from: http://www.guitartabs.cc/tabs/c/creed/never_die_tab_ver_4.html ]
Chorus: (heavy distortion)
                                               (after a couple of times
                                                comes this.)
----------------------------------------------(-----------------)(2x)
----------------------------------------------(-----------------)
------------8b------3b------7b------2b--------(-----------------)
--X-X--X-X--6b-X-X--1b-X-X--5b-X-X--0-X-X-----(--X-X-7b---------)
--X-X--X-X--6b-X-X--1b-X-X--5b-X-X--0-X-X-----(--X-X-X----------)
--X-X--X-X--6b-X-X--1b-X-X--5b-X-X--0-X-X-----(--X-X-5b---------)


Bridge: (no dist at first but put some after a while)

-----------------------------------------------------|
-----------------------------------------------------|
-----------------------------------------------------|
-----------------------------------------------------|
--9-10--12-12-12h13--12--(3X)--9-10-9--9--9h10-9-7-5-|
-----------------------------------------------------|

(when distortion comes)

---------------------------------------------------------|
---------------------------------------------------------|
---------------------------------------------------------|
-9-10--12-12-12h13--12--------9-10-9--9--9h10-9-7-5------|
-9-10--12-12-12h13--12--(3X)--9-10-9--9--9h10-9-7-5------|
---------------------------------------------------------|

Listen to CD for the order of the song...

OK that's about it thanks for coming and seing, hope you appreciated it.

Thanks...