Creed - My Sacrifice Chords & Tabs

 

My Sacrifice Chords & Tabs

Creed Chords & Tabs

Version: 7 Type: Tab 0 ratings
1 star 2 stars 3 stars 4 stars 5 stars
comments

My Sacrifice Tab

   
----------------------------------------------------------
			     MY SACRIFICE - Creed
----------------------------------------------------------
Tabbed by: DJ_Inferno2000
Email: DJ_Inferno2000@hotmail.com

Tuning: e B G D A e
----------------------------------------------------------
gud song. looks complicated but rocks. hav phun!
and please please please rate!!! i think this is 100% right
except for the bridge. if you have a better bridge please mail to me
-----------------------------------------------------------

Intro:

e|-----------------------------------------|
B|---2-----3p2-----------------------------|
G|-----4-------4-----------14----14--------|
D|-------4-------4------12----12-----------|
A|-2---------------0-10--------------------|
E|-----------------------------------------|

e|-----------------------------------------|
B|-----------------------------------------|
G|-7-7-7-6-6-6-7--6-6-7-6-7-7/11-12--------|
D|-0-0-0-0-0-0-0--0-0-0-0-0-0-----0--------|
A|-----------------------------------------|
E|-----------------------------------------|

e|-----------------------------------------|
B|-----2-----3p2---------------------------|
G|-------4-------4-----------14----14------|
D|---------4-------4------12----12---------|
A|-0-2---------------0-10------------------|
E|-----------------------------------------|


Verse:

e|---------------------------|
B|---------------------------|
G|-7/6-6/7-7-7-7pm--7-7-7pm--|   x2
D|-7/6-6/7-7-7-7pm--7-7-7pm--|
A|-5/4-4/5-5-5-5pm--5-5-5pm--|
E|---------------------------|
[ Tab from: http://www.guitartabs.cc/tabs/c/creed/my_sacrifice_tab_ver_7.html ]
e|---2--2-2-2-2---------------|
B|---3--3-3-3-3---------------|
G|-4-4--4-4-4-4-7-7--7-7-7-7--|
D|-4-4--4-4-4-4-5-5--5-5-5-5--|
A|-2-2--2-2-2-2-5-5--5-5-5-5--|
E|--------------5-5--5-5-5-5--|


Chorus:

e|-------------------------2-2-2-2-2-2-----------------|
B|-------------------------3-3-3-3-3-3-----------------|
G|-7-7-7-7-7-7-9-9-9-9-9-9-4-4-4-4-4-4-7-7-7-7-7-7-----|
D|-7-7-7-7-7-7-7-7-7-7-7-7-4-4-4-4-4-4-5-5-5-5-5-5-----|
A|-5-5-5-5-5-5-5-5-5-5-5-5-2-2-2-2-2-2-5-5-5-5-5-5-----|
E|-------------------------------------5-5-5-5-5-5-----|


Bridge:
e|-----------------------------------------------------|
B|-----------------------------------------------------|
G|-9-9-9/7-7-7-7/6-6/4-4\6-7/6-6/7-7/9-9\7-7-7-7-------|
D|-9-9-9/7-7-7-7/6-6/4-4\6-7/6-6/7-7/9-9\7-7-7-7-------| x2
A|-7-7-7/5-5-5-5/4-4/2-2\4-5/4-4/5-5/7-7\5-5-5-5-------|
E|-----------------------------------------------------|

e|-------------------------------------------------------------|
B|-------------------------------------------------------------|
G|-7-7-7-7-7--7-7-7-7-7-x-x-x-x-x-7-7-7-7-7--7-7-7-7-7-x-x-x-x-|
D|-8-8-8-8-8--8-8-8-8-8-x-x-x-x-x-8-8-8-8-8--8-8-8-8-8-x-x-x-x-|
A|-5-5-5-5-5--5-5-5-5-5-x-x-x-x-x-5-5-5-5-5--5-5-5-5-5-x-x-x-x-|
E|-------------------------------------------------------------|
                                                       ^^^^^^^
                                                      End with this 



Intro
Verse  x2
Chorus x2
verse  x3
chorus x2
Bridge x1
Chorus x2
(without distortion)
Chorus x2
 (with distortion)
Bridge x1 
----------------------------------------------------------------------------
Comments