Creed - My Sacrifice Chords & Tabs

 

My Sacrifice Chords & Tabs

Creed Chords & Tabs

Version: 2 Type: Tab 1 rating
1 star 2 stars 3 stars 4 stars 5 stars
comments

My Sacrifice Tab

Song: My Sacrifice                                         Key              
Artist: Creed                                              
Album: Weathered                                           Let Note Ring: ~
Tuning: DADGBE                                             Pull Off: p
Tabbed By: Ryan Vernon                                     Left Hand Mute: x
Email: ohio_guitar_player15@yahoo.com                      Slide Up: /
                                                           Slide Down: \                  
                                                           
I use a DOD FX65 Stereo Chorus on the intro and 
choruses with the speed on 0 and the delay and depth
all the way up. If you have any questions or comments
email me. 
________________________________________________________________________________

Intro: Clean 

|------------------------------5-----5----------------------------|
|------2-----3~~~~~-----------------------------------------------|
|--------4-----------------------7-----7~~~~~---------------------|
|----------4-----------------------5------------------------------|
|----2-----------------------5------------------------------------|
|--------------------------5--------------------------------------|

|-----------------------------------------------------------------|
|-----------------------------------------------------------------|
|----777\66/77~~~~~-----77\66/11~~-----11/12-11-------------------|
|----xxx-xx-xx----------xx-xx--x--------x--x--x-------------------|
|----555\44/55~~~~~-----55\44/-9~~------9/10--9-------------------|
|-----------------------------------------------------------------|


|------------------------------------5-----5----------------------|
|------2-----3p2--------------------------------------------------|
|--------4-------4---------------------7-----7~~~~~---------------|
|----------4-------4~~~~~----------------5------------------------|
|----2-----------------------------5------------------------------|
|--------------------------------5--------------------------------|

Verse: Distortion          Repeat 3x
[ Tab from: http://www.guitartabs.cc/tabs/c/creed/my_sacrifice_tab_ver_2.html ]
|-----------------------------------------------------------------|
|-----------------------------------------------------------------|
|---7\66/7-7---77777---7\66/7-7---77776---------------------------|
|---x-xx-x-x---xxxxx---x-xx-x-x---xxxxx---------------------------|
|---5\44/5-5---55555---5\44/5-5---55554---------------------------|
|-----------------------------------------------------------------|

|-----------------------------------------------------------------|
|---12-1212121212/20-2020202020-----------------------------------|
|---11-1111111111/19-1919191919-----------------------------------|
|----9—-9-9-9-9-9/17-1717171717-----------------------------------|
|----9—-9-9-9-9-9/17-1717171717-----------------------------------|
|----9—-9-9-9-9-9/17-1717171717-----------------------------------|

Chorus: Distortion          Repeat 2x

|-----------------------------------------------------------------|
|---3-33333/10-1010101010/12-1212121212\8-88888-------------------|
|---2-22222/-9—-9-9-9-9-9/10-1111111111\7-77777-------------------|
|---0-00000/-7—-7-7-7-7-7/-9—-9-9-9-9-9\5-55555-------------------|
|---0-00000/-7—-7-7-7-7-7/-9—-9-9-9-9-9\5-55555-------------------|
|---0-00000/-7—-7-7-7-7-7/-9—-9-9-9-9-9\5-55555-------------------|

Repeat Verse 3x

Repeat Chorus 2x

Bridge: Distortion

|-----------------------------------------------------------------|
|-----------------------------------------------------------------|
|---11\9-99—9\7-77—7\66/77\66/77/99\77/99\7-77--------------------|
|----x-x-xx-x-x-xx-x-xx-xx-xx-xx-xx-xx-xx-x-xx--------------------|
|----9\7-77-7\5-55-5\44/55\44/55/77\55/77\5-55--------------------|
|-----------------------------------------------------------------|

|-----------------------------------------------------------------|
|-----------------------------------------------------------------|
|---11\9-99-9\7-77-7\66/77\66/77/99\77/99\7-77--------------------|
|----x-x-xx-x-x-xx-x-xx-xx-xx-xx-xx-xx-xx-x-xx--------------------|
|----9\7-77-7\5-55-5\44/55\44/55/77\55/77\5-55--------------------|
|-----------------------------------------------------------------|

|-----------------------------------------------------------------|
|-----------------------------------------------------------------|
|---15151515--15151515-----15151515--15151515---------------------|
|----x-x-x-x---x-x-x-x------x-x-x-x---x-x-x-x---0-0-0-7~~~~~------|
|---13131313—-13131313-----13131313--13131313---0-0-0-0~~~~~------|
|-----------------------------------------------0-0-0-0~~~~~------|

Repeat Chorus 2x Clean Tone

Repeat Chorus 2x Distortion

Repeat Bridge 

Song Order

Intro: Clean
Verse: Distortion
Chorus: Distortion
Verse: Distortion
Chorus: Distortion
Bridge: Distortion
Chorus: Clean
Chorus: Distortion
Bridge: Distortion

Comments