Creed - My Sacrifice Chords & Tabs

 

My Sacrifice Chords & Tabs

Creed Chords & Tabs

Version: 2 Type: Bass Tab 0 ratings
1 star 2 stars 3 stars 4 stars 5 stars
comments

My Sacrifice Bass Tab

   
Artist: Creed
Transcribe:Fernando Delgado
Tuning:G,D,A,E
is in the standard tuning but sound pretty well!

This is my new version with a little corection enjoy            
and i make the part of the bridge before the clan part in guitar

THIS IS THE RIFFS, THE PEO
Hello my friend................
G-----------------------------------------------------------
D-----------------------------------------------------------
A-5-5-5-4-5-5-5-5-5-5-5-5-5-4-5-5-5-5-2-2-------------------
E--------------------------------------2--2--3-3-3----------
[ Tab from: http://www.guitartabs.cc/tabs/c/creed/my_sacrifice_btab_ver_2.html ]
G-----------------------------------------------------------
D-----------------------------------------------------------
A-5-5-5-4-5-5-5-5-5-5-5-5-5-4-5-5-5-5-2-2-------------------
E--------------------------------------2--2--3-3-3----------

IM FREE, AND CARE LESS.............
G-----------------------------------------------------------
D-----------------------------------------------------------
A-5-5-5-5-5-5-7-7-7-7-7-7-----------------------------------
E-------------------------7-7-7-7-7-7-3-3-3-3-3-3-----------

IS THE SAME THING HEAR THE SONG BECAUSE THIS REPEATS.
aND THROW A PEO FUMADO......................

and this is the bridge

g-----------------------------------------------------------
d-----------------------------------------------------------
a-----------------------------------------------------------
e----6-6-6-6-0--6-6-6-6-0--6-6-6-6-0------------------------
thats every! elrockero56@aol.com
Comments