Creed - My Sacrifice Chords & Tabs

 

My Sacrifice Chords & Tabs

Creed Chords & Tabs

Version: 1 Type: Bass Tab 2 ratings
1 star 2 stars 3 stars 4 stars 5 stars
comments

My Sacrifice Bass Tab

                ----------- Creed - MY SACRIFICE -----------

I like this song so much, so I hope you enyoy.
It's somethink like that. It's nescessary to listen song carefuly.

Tabbed by: Denishguy
Tunning: Dropped D (G,D,A,D - like ussualy Creed uses )
Email: denishguy@volny.cz
_________________________________

Intro
No bass

Verse
G -----------------------------------------------------------------------
D -------------------------------------------4------------5-----5------
A ----554445555----554455555----2-----22----------------------
D ------------------------------------------------------5----55----5---
[ Tab from: http://www.guitartabs.cc/tabs/c/creed/my_sacrifice_btab.html ]
Chorus
G -----------------------------------------------------------------------
D -----------------------------------------------------------------------
A --5-55-5555--4-44-44444---2-222-2222-----------------------
D --------------------------------------------------55555--2-0-1-00----

Bridge
G ------------------------------------------------------------------------
D -----------------------------------------------------------------------
A -----55555--44-555-454-5555---44-555------------------------
D --------------0---------------------0------------------------------------

Maybe I will be writting some drowning pool tab. This is very heavy band.
Have a good fun!!!
Comments