Creed - My Own Prison Live Chords & Tabs

 

My Own Prison Live Chords & Tabs

Creed Chords & Tabs

Version: 1 Type: Bass Tab 0 ratings
1 star 2 stars 3 stars 4 stars 5 stars
comments

My Own Prison Live Bass Tab

Band- Creed
Song- My Own Prison(Live at Alcatraz)
Album- My Own Prison
Tuning- Drop D

Verse 1 (Starts from 0.51)
G|----------------------------|
D|----------------------------|
A|----------------3-5-3-------|
D|----------------------5-3---|

G|----------------------------|----------------------------|----------------------------|----------------------------|
D|------------------0-3-5-3---|----------------------------|------------------0-3-5-3---|----------------------------|
A|--------5-----0-1---------0-|--------------3-3-5-3-----5-|--------5-----0-1---------0-|--------------3-3-5-3-------| X4
D|--0-------------------------|--3----3---3----------5-3---|--0-------------------------|--3----3---3----------5-3---|

Chorus 1
G|----------------------------|----------------------------|----------------------------|----------------------------|
D|-------------3----------3---|------------2-------2-------|----------------------------|-------------------3----2-3-|
A|-----------3----------3-----|------------------2---2-2-4-|----------------------------|-------------3--5-----5-----|
D|--3-----3-------3-3---------|--2-----2------2------------|--1-----1----1--1-1-----1-1-|--0-----0--0----------------|

G|----------------------------|----------------------------|----------------------------|----------------------------|
D|----------------------------|----------------------2---2-|----------------------------|-------------------3----2-3-|
A|----------------------------|--------------------2---2---|----------------------------|-------------3--5-----5-----|
D|--3-----3----3--3-3-----3-3-|--2-----2---2--2------------|--1-----1-------1-1-----1-1-|--0-----0--0----------------|

Verse 2
G|----------------------------|----------------------------|----------------------------|----------------------------|
D|------------------0-3-5-3---|----------------------------|------------------0-3-5-3---|----------------------------|
A|--------5-----0-1---------0-|--------------3-3-5-3-----5-|--------5-----0-1---------0-|--------------3-3-5-3-------| X3
D|--0-------------------------|--3----3---3----------5-3---|--0-------------------------|--3----3---3----------5-3---|

G|----------------------------|----------------------------|----------------------------|----------------------------|
D|----------------------------|----------------------------|------------------0-3-5-3---|----------------------------|
A|------------------1--1--0-0-|--------------3-3-5-3-----5-|--------5-----0-1---------0-|--------------3-3-5-3-------| X2
D|--0-----0----0--------------|--3----3---3----------5-3---|--0-------------------------|--3----3---3----------5-3---|

Chorus 2
G|----------------------------|----------------------------|----------------------------|----------------------------|
D|----------------------------|------------2-------2-------|----------------------------|-------------------3----2-3-|
A|----------------------------|------------------2---2-2-4-|----------------------------|-------------3--5-----5-----|
D|--3-----3-------3-3---------|--2-----2------2------------|--1-----1----1--1-1-----1-1-|--0-----0--0----------------|

G|----------------------------|----------------------------|----------------------------|----------------------------|
D|-------------3----------3---|----------------------2---2-|----------------------------|-------------------3----2-3-|
A|-----------3----------3-----|--------------------2---2---|----------------------------|-------------3--5-----5-----|
D|--3-----3-------3-3---------|--2-----2---2--2------------|--1-----1----1--1-1-----1-1-|--0-----0--0----------------|
[ Tab from: http://www.guitartabs.cc/tabs/c/creed/my_own_prison_live_btab.html ]
Bridge
G|----------------------------|----------------------------|----------------------------|----------------------------|
D|----------------------------|------------------0-3-5-3---|----------------------------|------------------------5---|
A|----------------3-3-----3-5-|--------5-----0-1---------0-|----------------3-3-----3-5-|--------5-----0-1-1-1-5-----|
D|--3-----3---3-3-------3-----|--0-------------------------|--3-----3---3-3-------3-----|--0-------------------------|

G|----------------------------|----------------------------|----------------------------|----------------------------|
D|----------------------------|--------------------0-3-5---|----------------------------|----------------------------|
A|----------------3-3-----3-5-|--------5-----0-1---------0-|----------------3-3-----3-5-|--------5-----0-1-1-1-5-----|
D|--3-----3---3-3-------3-----|--0-------------------------|--3-----3---3-3-------3-----|--0---------------------5---|

G|----------------------------|----------------------------|----------------------------|----------------------------|
D|----------------------------|------------------0-3-5-3---|----------------------------|------------------------5---|
A|----------------3-3-----3-5-|--------5-----0-1---------0-|----------------3-3-----3-5-|--------5-----0-1-1-1-5-----|
D|--3-----3---3-3-------3-----|--0-------------------------|--3-----3---3-3-------3-----|--0-------------------------|

Chorus 3/Ending
G|----------------------------|----------------------------|----------------------------|----------------------------|
D|------------------------3---|------------2-------2-----2-|----------------------------|-------------------3----2-3-|
A|----------------------3-----|------------------2---2-----|----------------------------|-------------3--5-----5-----|
D|--3-----3----3--3-3---------|--2-----2------2------------|--1-----1----1--1-1-----1-1-|--0-----0--0----------------|

G|----------------------------|----------------------------|----------------------------|----------------------------|
D|-------------3--------------|--------------------2-------|-------------1--------------|-------------------3----2-3-|
A|------------------------3---|------------------2---2-2-4-|----------------------------|-------------3--5-----5-----|
D|--3-----3-------3-3---3-----|--2-----2---2--2------------|--1-----1-------1-1-----1-1-|--0-----0--0----------------|

G|----------------------------|----------------------------|----------------------------|----------------------------|
D|-------------3----------3---|--------------------2-------|-------------1--------------|------------3---------------|
A|----------------------3-----|------------------2---2-2-4-|----------------------------|--------3-5---5-5-5-5-3-5-3-|
D|--3-----3-------3-3---------|--2-----2---2--2------------|--1-----1-------1-1-----1-1-|--0-------------------------|

G|----------------------------|----------------------------|----------------------------|----------------------------|
D|----------------------------|--------------------2-------|----------------------------|-------------------3----2-3-|
A|----------------------------|------------------2---2-2-4-|----------------------------|--------0----3--5-----5-----|
D|--3-3-3-3-3-3-3-3-3-3-3-3-3-|--2-2-2-2-2-2-2-2-----------|--1-1-1-1-1-1-1-1-1-1-1-1-1-|--0-------------------------|

G|----------------------------|----------------------------|----------------------------|----------------------------|
D|----------------------------|----------------------------|----------------------------|----------------------------|
A|-----/8-8-8-8-8-8-8-8-8-8-8-|--7-7-7-7-7-7-7-7-7-7-7-7-7-|----------------------------|--5-5-----5-5-----5-5-------|
D|--3-3-----------------------|----------------------------|--1-1-1-1-1-1-1-1-1-1-1-1-1-|------0-0-----0-0-----0-0-0-|

G|----------------------------|----------------------------|----------------------------|----------------------------|
D|----------------------------|----------------------------|----------------------------|----------------------------|
A|-----/8-8-8-8-8-8-8-8-8-8-8-|--7-7-7-7-7-7-7-7-7-7-7-7-7-|-----------------------6--6-|----------------------------|
D|--3-3-----------------------|----------------------------|--1---1---1---1------/------|------0---------------------|
Comments