Creed - My Own Prison Chords & Tabs

 

My Own Prison Chords & Tabs

Creed Chords & Tabs

Version: 2 Type: Bass Tab 0 ratings
1 star 2 stars 3 stars 4 stars 5 stars
comments

My Own Prison Bass Tab

Song:  My Own Prison
Artist:  Creed
Album:  My Own Prison
________________________________________________________________________
Drop-D tuning...Lo to Hi(DADG)
Verse-there are some subtle variations, but this is the main riff.
G|-----------------------------------------|
D|-------------3h5h3-0---------------------|
A|--------0-3h5-------5-------0-3h5-3-0-3--|
D|--0--0-0--------------3--3-3---------5---|
Chorus
G|------------------------------------------------------------|
D|----------------------------3-5-0----------------------2-2--|
A|------------4-5-0-3--3-3-3-5-----------------2----22-33-3---|
D|--3--3-3-3-5---------------------1--1-1-1-2h3-3-0-----------|
Bridge-Just figure out the rythym and number of times played before it
goes back to the chorus to end the song
G|------------------------------------|
D|------------------------------------|
A|--------3-3--3-3-4h5--5-5-3-3--3-3--|
D|--3--3-3----------------------------|
After the chorus returns for a few measures the song ends and that's it.
The roots for the song are easy to figure out, just add some tailnotes
here and there to make it sound better...
E-mail any corrections, comments, thanks, death threats, etc. to
wylddkarrde@hotmail.com

Michael Wilson
"Division by zero"


[ Tab from: http://www.guitartabs.cc/tabs/c/creed/my_own_prison_btab_ver_2.html ]
Comments