Creed - Lullaby Chords & Tabs

 

Lullaby Chords & Tabs

Creed Chords & Tabs

Version: 4 Type: Tab 0 ratings
1 star 2 stars 3 stars 4 stars 5 stars
comments

Lullaby Tab

#----------------------------------PLEASE NOTE--------------------------------#
#This file is the author's own work and represents their interpretation of the#
#song. You may only use this file for private study, scholarship, or research.#
#-----------------------------------------------------------------------------#
#-- File created with Instab - http://www.pconline.com/~smcarey/instab.html --#
#-----------------------------------------------------------------------------#

Author/Artist: Creed
Title: Lullaby
Album: Weatered
Transcribed by: Carie jR.(M.khAirY)
Email: Hybrid_authority@hotmail.com


[ Tab from: http://www.guitartabs.cc/tabs/c/creed/lullaby_tab_ver_4.html ]
intro/verse
-----------------------|-----------------------------|-
-----------------------|-----------------------------|-
-9-8\6-8-6-------------|-9-8\6-9\11--9--------9\11-9-|-
-----------9-11-9---9v-|---------------9-11-9--------|-
-------------0----0----|-----------------0-----------|-
-9-----7------------0--|-9-----7-------------------0-|-


                                                                              
              Chorus
------------|------------------------------------|-
-9-10-------|------------------------------------|-
------8-8\9-|------------------------------------|-
------------|--6\7-6----6\11-6----6-----6\7-6----|-
------------|--7-----7--0---------7-7---7-----7--|-
-0----9-----|------------------0------0----------|-
                                                                              

--------------------|--
--------------------|--
--------------------|--
-6h7-6--------------|--
---------4\6-7v-----|--
-------9---------0--|--

5pKe3 
                                                                              

Comments