Creed - Lullaby Chords & Tabs

 

Lullaby Chords & Tabs

Creed Chords & Tabs

Version: 2 Type: Tab 0 ratings
1 star 2 stars 3 stars 4 stars 5 stars
comments

Lullaby Tab

CREED - LULLABY



e:--------------------------------------------0----------------------  (3x)
B:--3---2-----2---0-----0-----------3---2---------3-------------3/5--
G:--------------------------2---2-----------------------2h4-2--------
D:-------------------------------------------------------------------
A:--2-----0---0-----0-----------0---2-----0---0-----0-----------0----
E:----------------------3-------------------------------3------------


e:-----------------------
B:--------0--------------
G:--0--------2-----0-----
D:-----4--------4-----4--
A:--------------3--------
E:--0-----3--------------

[ Tab from: http://www.guitartabs.cc/tabs/c/creed/lullaby_tab_ver_2.html ]
e:-----------------------------------------------------------------------------------
B:-------------0----------3----2-2------0---------------0-----------3----2-2------0--
G:--0-------------2--------------------------0--------------2------------------------
D:----4-----------------------------------------4------------------------------------
A:------------------------2------0----------------------------------2------0---------
E:--0----------3-----------------------------0----------3----------------------------


e:-2---3-----------
B:-------2------3--
G:-----------------
D:-0---------------
A:-------2---------
E:-----------------


e:---------------------- (2x)
B:--------0-------------
G:--0--------2-----0----
D:-----4--------4----4--
A:--------------5-------
E:--0-----3-------------


e:----------------- (3rd x)
B:--------0--------
G:--0--------2-----
D:-----4--------4--
A:--------------5--
E:--0-----3--------


e:-------------------
B:-------------------
G:--4h5-4------------
D:--------0-2/4-5-0--
A:-------------------
E:-------------------


pretty sure it's about 98% correct

questions stevenlb28@hotmail.com
Comments