Creed - Lullaby Chords & Tabs

 

Lullaby Chords & Tabs

Creed Chords & Tabs

Version: 15 Type: Tab

Lullaby Tab

"Lullaby" By Creed
This is a nice song. The tab sounds very much like it. Hope you enjoy!
(Tuning:ebgdaD)(acoustic)

Intro/Verses
----------------------------------------------------------------------|
----------------------------------------------------------------------|
------------------------------------------9--7---------7/9------------| x3
-12--11-0--11--9-0--9--7--7------12--11\--------7h9----------0--------|
-----------------------------0--------------------------------0-------|
-9---------7--------5-----0---0--9--------7-----5------0--------------|

Pre-chorus:
----------------------------------------------------------------------|
----------------------------------------------------------------------|
----------------------------------------------------------------------|
-5--4----9--7--4~---4h5-4p0-------------------------------------------|
----------------------------------------------------------------------|
-2-----//5-----0------------------------------------------------------|
[ Tab from: http://www.guitartabs.cc/tabs/c/creed/lullaby_tab_ver_15.html ]
Chorus:                          x2
------------------------------------|---------------------------------|
------------------------------------|---------------------------------|
------------------------------------|------11-12----------------------|
-5--4----9--7----12--11-0--11--9-0--|------0-----11-12~---------------|
------------------------------------|---------------------------------|
-2-----//5-----//9---------7--------|------------9--------------------|
                         x2
----------------------------|-----------------------------------------|
----------------------------|-----------------------------------------|
----------------------------|-----------------------------------------|
-5--4----9--7--4~---4h5-4p0-|-5--4----9--7--4~----4h5-4---------------|
----------------------------|---------------------------0-2/4-5-0-----|
-2-----//5-----0------------|-2-----//5-------------------------------|

Pre-verse:
----------------------------------------------------------------------|
----------------------------------------------------------------------|
-------------------------------------------9--7-----------------------|
-12--11-0--11--9-0--9--7--7~-----12--11\\-------7h9--7---12~-0--------|
-----------------------------0--------------------------------0-------|
-9---------7--------5-----0---0--9---------7----5---------------------|

Repeat verse, pre-chorus and chorus from top. When it comes to the "just give love to 
part, you occasionally do this:

-----------------|
-----------------|
-----------------|  listen for this.
-4h5--7--0-------|
-----------------|
-----------------|

Interlude: x8 |         x10 |                                      end
--------------|-14h15-14----|-----------------------------------------|
--------------|----------15-|-----------------------------------------|
-11h12-11-----|-------------|-----------------------------------------|
----------12--|-------------|-4h5-4------------0----------------------|
--------------|-------------|--------0-2/4-5-0------------------------|
--------------|-------------|-----------------------------------------|