Creed - Lullaby Chords & Tabs

 

Lullaby Chords & Tabs

Creed Chords & Tabs

Version: 12 Type: Tab 0 ratings
1 star 2 stars 3 stars 4 stars 5 stars
comments

Lullaby Tab

Tabs submitted by Tin and Pael J
LULLABY
Creed

Tuning: DADGBE

p – pull off
h – hammer on
/ – slide

(Just listen to the song to get the correct timing and order of the riffs.)

   I.   E|---------------------------------------------------------------------||
        B|-----3-2p0-2-------------------------3-2p0-5-(0)-------3h5-----------||
        G|----------------4p2-4-2--2------------------4-4p2-4-2----------------||x3 (intro/verse)
        D|------------------------------0-----------------------------0-----0--||         
        A|-----2-------0------------0----0-----2-------0--------------------0--||             
        D|----------------------5--------------------------------5-------------||

  II.   E|---------------------------------------|
        B|---------------------------------------|
        G|------------4-2------------------------|
        D|---5-4p0-------4-------4h5-4p0---------|
        A|--------------------0------------------|
        D|---0--------5---0----0--0--------------|

III.   E|------------------------------                         ----2-3------------|
        B|-----------------------------                         ----------2-3------|
        G|------------4-2-7-6-6-4------                         -------------------|
        D|---5-4p0---------------------     x2, then:           -----0-------------|
        A|----------------------0------                         -------------------|
        D|---0--------5---0------------                         -------------------|


Go back to II. (x2), then:
[ Tab from: http://www.guitartabs.cc/tabs/c/creed/lullaby_tab_ver_12.html ]
 IV.    E|------------------------                   --------------------------------|
        B|------------------------                   --------------------------------|
        G|------------4-2---------                   --------------------------------|
        D|---5-4p0--------4-------     pause, then:  ---4h5p4--------------------0---|
        A|------------------------                   ------------0-2h4/5-------------|
        D|---0--------5----0------                   -------------------------0------|


Repeat I., II., and III., then:

 V.     E|-------------------------------------------|
        B|-------------------------------------------|
        G|-------------4-2---------------------------|
        D|---5-4p0---------4-------4h5-4-0-----------|
        A|----------------------0--------------------|
        D|---0--------5-----0----0--0----------------|

VI.     E|--------------------------------------------|
        B|--------------------------------------------|
        G|-------------4-2----------------------------|
        D|---5-4p0---------4-------4h5-5/7-0----------|
        A|----------------------0---------------------|
        D|---0---------5----0----0--0-----------------| 


Then repeat in this order: V., V., *VI., V. V., VI.
		*after a few repetitions of V. and VI., a second guitar comes in:

				E|-------2h3--2---------||
				B|----------------3-----||
  				G|----------------------||    (This is played over and over, simultaneously 
				D|----------------------||        with the first guitar while it’s playing 
				A|----------------------||         V. and VI. )
				D|----------------------||	


Repeat IV.

End.
Comments