Creed - Lullaby Chords & Tabs

 

Lullaby Chords & Tabs

Creed Chords & Tabs

Version: 1 Type: Tab 0 ratings
1 star 2 stars 3 stars 4 stars 5 stars
comments

Lullaby Tab


E----------------------------------------------------
A----------------------------------------------------
D------------9-9---7-7-----------7h9p7--7------------ 2x
G----7-6--6-------------7-6--9-7--------------7/9----
B----------------------------------------------------
E----------------------------------------------------

E----------------------------------------------------
A----------------------------------------------------
D---5-4-----4--4h5----4------5-4--------------------- 2x
G-------4-2----------------------4-2------------4----
B-------------------------------------3-2---2--------
E----------------------------------------------------

E----------------------------------------------------
A----------------------------------------------------
D----------------------------------------------------
G-----------------------6--7-------------------------
B---------------7--8---------------------------------
E----------------------------------------------------
[ Tab from: http://www.guitartabs.cc/tabs/c/creed/lullaby_tab.html ]
E----------------------------------------------------
A----------------------------------------------------
D---5-4-----4--4h5----4------------------------------
G-------4-2------------------------------------------ 3x
B----------------------------------------------------
E----------------------------------------------------

E----------------------------------------------------
A------------0--4h5----5-----------------------------
D----------------------------------------------------
G----------------------------------------------------
B----------------------------------------------------
E----------------------------------------------------

At the end change to...

E----------------------------------------------------
A----------------------------------------------------
D--------5-4-----------4--4h5/7p0--------------------
G--------------4--2----------------------------------
B----------------------------------------------------
E----------------------------------------------------

Comments