Creed - Inside Us All Chords & Tabs

 

Inside Us All Chords & Tabs

Creed Chords & Tabs

Version: 6 Type: Tab 0 ratings
1 star 2 stars 3 stars 4 stars 5 stars
comments

Inside Us All Tab

   
Band- Creed
Song- Inside Us All
Album- Human Clay
Tuning- Standard

INTRO/VERSE:

E|-------------------------0---------------------------------0------|
B|---------------------------0---------------------------------0----|
G|----------------------0------0------2------4------------0------0--|
D|----4-----5---------5-----------0------0-----0--------0-----------|
A|------2-----3-----3-----------------------------------------------|
E|--0-----0-----0-------------------3------3-------3----------------|


E|-----------------------------------------------------------------------|
B|-----------------------------------------------------------------------|
G|-----------------------------------------------/12-----11-----9h11p9\\-|
D|----4-----5-----7-----5-----4/5-----4-----5----------------------------|
A|------2-----3-------------------------2-----3--------------------------|
E|--0-----0----------0-----0-------0------0-----0------0------0----------|

     CHORUS:

E-----------------------------------------------------------------------|
B|----------------------------------------------------------------------|
G|--5--5--5-5-5--5-5-4--4--4-4-4--4-4-7--7--7-7-7--7-7-7--7--7-7-7--7-7-|
D|--5--5--5-5-5--5-5-5--5--5-5-5--5-5-7--7--7-7-7--7-7-7--7--7-7-7--7-7-|
A|--3--3--3-3-3--3-3-5--5--5-5-5--5-5-5--5--5-5-5--5-5-5--5--5-5-5--5-5-|
E|---------------3-3-3--3--3-3-3--3-3-0--0--0-0-0--0-0-0--0--0-0-0--0-0-|
                     p.m.             p.m.                              p.m.
[ Tab from: http://www.guitartabs.cc/tabs/c/creed/inside_us_all_tab_ver_6.html ]
E|-------3--------------------------------------------------------------|
B|---------3------------------------------------------------------------|
G|--5--5-----5--5-5-4--4--4-4-4--4-4-7--7--7-7-7--7-7-7--7--7-7-7--7-7--|
D|--5--5-----5--5-5-5--5--5-5-5--5-5-7--7--7-7-7--7-7-7--7--7-7-7--7-7--|
A|--3--3-----3--3-3-5--5--5-5-5--5-5-5--5--5-5-5--5-5-5--5--5-5-5--5-5--|
E|--------------3-3-3--3--3-3-3--3-3-0--0--0-0-0--0-0-0--0--0-0-0--0-0--|
                    p.m.             p.m.             p.m.             p.m.

    E|-------3---------------------------------------------------------|
    B|---------3-------------------------------------------------------|
    G|--5--5-----5--5-5-4--4--4-4-4--4-4-7--7--7-7-7--7-7-7--7--7-7-7--|
    D|--5--5-----5--5-5-5--5--5-5-5--5-5-7--7--7-7-7--7-7-7--7--7-7-7--|
    A|--3--3-----3--3-3-5--5--5-5-5--5-5-5--5--5-5-5--5-5-5--5--5-5-5--|
    E|--------------3-3-3--3--3-3-3--3-3-0--0--0-0-0--0-0-0--0--0-0-0--|
                    p.m.             p.m.             p.m.

     1ST BRIDGE:

     Play this 2 times

    E|----------------------------------|
    B|----------------------------------|
    G|-------7-----7-----7-----7-----7--|
    D|---4-5---4-5---4-5---4-5---4-5----|
    A|----------------------------------|
    E|----------------------------------|


    Play this 1 time

    E|------2-2--2-2-2-------2-2--2-2-2--|
    B|------3-3--3-3-3-------3-3--3-3-3--|
    G|------2-2--2-2-2-------2-2--2-2-2--|
    D|--3-3-0-0--0-0-0---3-3-0-0--0-0-0--|
    A|--3-3--------------3-3-------------|
    E|--1-1--------------1-1-------------|

     2ND BRIDGE:

     Play this 2 times very fast


E|-----------------------------------------------------------------------|
B|18p17p15-18p17p15-18p17p15-18p17p15-18p17p15-18p17p15-18p17p1518p17p15-|
G|-----------------------------------------------------------------------|
D|-----------------------------------------------------------------------|
A|-----------------------------------------------------------------------|
E|-----------------------------------------------------------------------|

     Play this 2 times

    E|------------------------|
    B|--15-15----15-18-15-----|
    G|--------17----------17--|
    D|------------------------|
    A|------------------------|
    E|------------------------|

Then play the begining of the 2nd bridge(the part with the 18p17p15 on the b
string) 3 times.

ENJOY!!!!
Comments