Creed - In America Chords & Tabs

 

In America Chords & Tabs

Creed Chords & Tabs

Version: 2 Type: Bass Tab 0 ratings
1 star 2 stars 3 stars 4 stars 5 stars
comments

In America Bass Tab

Song: In America 
Artist: Creed 
Album: My Own Prison 
Tabbed by: Joe S. (p_munkies@hotmail.com) 
 
 
Here it is, it is a little messy and I'm doing it from memory, but it is 
at least 95% correct. I think that only one little fill is missing. 
 
 
Drop D tuning (C'mon, this is Creed, the eternally heavy band) 
Verse 
 
 
G------------------------------------------------------- 
D------------------------------------------------------- 
A-5-5-5/8-8-8-0-777-0-777-0-777--(there is a little fill the 4th time) 
D------------------------------------------------------- 
 
 
Chorus(What is right or wrong) 
G------------------------------------------------------- 
D------7-7-5-7-5---------------------------------------- 
A-5-55-----------7-5-0------7-7-5-7-5------------------- 
D----------------------5-55-----------7-5-0------------- 
 
 
Chorus Continued 
G------------------------------------------------------- 
D------4-4-2-4-2---------------------------------------- 
A-2-22-----------4-2-0-----4-4-2-0---------------------- 
D----------------------2-2------------------------------ 
 
 
Bridge- 1st part    2nd Part 
G-----------------:---------------------------------------- 
D-----------------:(Play this part slow 4x then 8x twice as fast) 
A-----------------:---------------------------------------- 
D-0-0-0-0-3-2-1---:-15-14-0-13-14-0-13-12-0-10-12-0-0-0-12 
 
 
Bridge Cont'd 
("In America, Whoa oh oh") 
G------------77777-------------------------------- 
D------------------------------------------------- 
A-----55555--------------------------------------- 
D------------------------------------------------- 
 
 
 
 
Any Questions, mail me. 

[ Tab from: http://www.guitartabs.cc/tabs/c/creed/in_america_btab_ver_2.html ]
Comments