Creed - Im Eighteen Chords & Tabs

 

Im Eighteen Chords & Tabs

Creed Chords & Tabs

Version: 1 Type: Tab 0 ratings
1 star 2 stars 3 stars 4 stars 5 stars
comments

Im Eighteen Tab

   
Song- I'm Eighteen
Artist- Creed
Tuning- EADBGe
Note- B= Full bend.
      R= Release bend but hold note.

Intro
e--------------------------------------
B----------------------3-------5-------
G----------------------5-------7-------
D--2--2--------------5-5-----7-7-------
A--2--2----------0-3---3--/5---5-------
E--0--0--0-0-2-3-----------------------

Intro Solo
GTR 1
e--------------------------------------------15b--15-12-14----12-----
B-15b--15b--15b--15b--15b--15b--15b--15b-p12---------------15----12--
G--------------------------------------------------------------------
D--------------------------------------------------------------------
A--------------------------------------------------------------------
E--------------------------------------------------------------------

e------------12----12--------------------------------------------------
B--15b-15--15----15----15-12----15-12----------------------------------
G---------------------------14-------12-14B-R-B-R-P12----12-12--12-----
D-----------------------------------------------------14-----------14--
A----------------------------------------------------------------------
E----------------------------------------------------------------------

GTR 2 Strumming
e-------------------
B-------------------
G--2---4---5---7----
D--2---4---5---7----
A--0---2---3---5----
E-------------------

Verse
e---------------0--------0--------7------------0--------0--------0-3p0-
B--7------1--------3-----3------9---7----1--------3-----3------1-------
G----9------0--------0--------9-------9----0--------0--------0---------
D------9------2--------4----7----------------2--------4----2-----------
A----------------------------------------------------------3-----------
E----------------------------------------------------------------------

e--------------0-5p0----------------7------------3p0-------0--
B--1---------3-------3------------7---7----1---------3-----3--
G----0-----0-----------0--------9-------9----0---------0------
D------2/4--------------------9----------------2---------4----
A------------------------5--7---------------------------------
E-------------------------------------------------------------




[ Tab from: http://www.guitartabs.cc/tabs/c/creed/im_eighteen_tab.html ]
Chorus
Play 3x                                Strumming
e---------------------------------|------------------|----------
B----------------------3-------5--|------------------|----------
G----------------------5-------7--|--2---4---5---7---|-Chorus---
D--2--2--------------5-5-----7-7--|--2---4---5---7---|-Play 1x--
A--2--2----------0-3---3--/5---5--|--0---2---3---5---|----------
E--0--0--0-0-2-3------------------|------------------|----------

Verse

Chorus
Play 3x

Solo
e---------------------------------------------------------------------
B------------------------------------------8b-r-p7--------------------
G--9-7-7-9-9-7-7-9-7-9b--9-7-7-9-9-7-7-9-7---------9-7-7-9-9-7-7-9-7--
D---------------------------------------------------------------------
A---------------------------------------------------------------------
E---------------------------------------------------------------------

e---------------------13-12--------------------------------------------
B---------------------------13-12--------------------------------------
G-10b--10b--10b--10b--------------14-12--------------------------------
D---------------------------------------15-14-12-----------------------
A------------------------------------------------15-14-14-12-11-12-14--
E----------------------------------------------------------------------

e---------------------------------------------------------------------
B---------------------------------------------------------------------
G--------------------------------------------------13-16p14p13-14-----
D-----------------------12-14-15p14p12-14-12-14-15----------------15--
A--12-14-15-14-12-14-15-----------------------------------------------
E---------------------------------------------------------------------

e----------------------------------------------------------
B-----------13-17p16p13-16-13-13----17-20-20b--20b--20b-r--
G--13-14-16----------------------19------------------------
D----------------------------------------------------------
A----------------------------------------------------------
E----------------------------------------------------------

At 2:25
Strumming
e---------------------------------
B---------------------------------
G--5---/7-------------------------
D--5---/7---2---------------------
A--3---/5---2---------------------
E-----------0---------------------






Chorus
Play 2x

e----------------------------------
B---------------------3-------5----
G---------------------5-------7----
D--2--2--6-5-4-3----5-5-----7-7----
A--2--2--4-3-2-1--3---3--/5---5----
E--0--0----------------------------

Outro
e-------------------------
B-------------------------
G---------5----7----2-2---
D--2-2----5----7----2-2---
A--2-2----3----5----0-0---
E--0-0--------------------

Key
b = Bend
r = Release bend
h = Hammer
p = Pull off
/ = Slide 
Comments