Creed - Illusion Chords & Tabs

 

Illusion Chords & Tabs

Creed Chords & Tabs

Version: 3 Type: Tab 0 ratings
1 star 2 stars 3 stars 4 stars 5 stars
comments

Illusion Tab

   
*Illusion*
Transcribed :FErnanDo DeLgado
PEACe Jesus love you man
Tuning: D A D G B E


BASS INTRO (Also Drop D tuning)
|-----------------------|
|--------------4--------|
|-2--------------5------|
|----3--3b--0---------4-|


LEAD INTRO
|------------------------------------------------------|
|-10b--------------------------------------------------|
|-10b--10-10-12--10-10-12p10------10-12b-12-10---------|
|----------------------------12-12-------------12-10-10|
|------------------------------------------------------|
|------------------------------------------------------|


|------------------|
|------------------|
|------------------|
|-4--3---0---4-----|
|-2--3---0-----5-0-|
|----3---0---------|


VERSE
|---------------------------------------------|
|---------------------------------------------|
|---------------------------------------------|
|---------------------------------------------|
|-2-2-2-2-2-2---------------------------------|
|-------------3-3-3-3-3-3-3-3-0-0---0-0---0-0-|
pm...............................   ...   ...

after playing that twice then play this 
|---------------------------------------------|
|---------------------------------------------|
|---------------------------------------------|
|---------------------------------------------|
|-2-------------------------------------------|
|-------------3-------3b------0-0---0-0---0-0-|
                              ...   ...   ...

|---------------------------------------------|
|---------------------------------------------|
|---------------------------------------------|
|-----------------------------0---------------|
|-2---------------------------0---------------|
|-------------3----3b---------0---------------|


CHORUS
|---------------------|
|---------------------|
|-4-------------------|
|-4--3---0---4-4------|
|-2--3---0-------5-5p0|
|----3---0------------|


VERSE 2 - Same


CHORUS 2 - Same

[ Tab from: http://www.guitartabs.cc/tabs/c/creed/illusion_tab_ver_3.html ]
SOLO
|-----------------------------------------------------------------
|-----------------------------------------------------------------
|-----------------------------------------------------------------
|-----------------------------------------------------------------
|-----------------------------------------------------------------
|-12----10-10-10h12-10-10-10h12----12-14-15--14-15-17--12-14-15---
        .....................      

 -----------------------------------------------------------------
 -----------------------------------------------------------------
 -----------------------------------------------------------------
 ----------------------------------------11-12-14-11-12--11-------
 -------------------------------10-12-13---------------13---12-13-
 -12-12-12h14\10/12----12-14-15-----------------------------------

 -----------------------------------------------------------------
 -----------------------------------------------------------------
 -----------------------------------------------------------------
 -----------------------------------------------------------------
 -10-12-8-10-7-8-5-7-8-5-7-8-5-7-5-\\\\\whammy bar dive-----------
 -----------------------------------------------------------------

then play this part 4 times
|---------------------------------------------|
|---------------------------------------------|
|---------------------------------------------|
|-------11-12--11-12-11--11-12-14-12-11-------|
|-12-13---------------------------------13-12-|
|---------------------------------------------|

and end the solo by tremolo picking on this
|----|
|----|
|-19-|
|----|
|-17-|
|----|


BRIDGE
|---------------------|
|---------------------|
|------3----5----2----|
|-0----3----5----2----|
|-0----1----3----0----|
|-0-------------------|


CHORUS 3 - Same


OUTRO
|-----------------------------|
|-----------------------------|
|-----------------------------|
|---------0--0----------------|
|---------0--0----------------|
|-4-5-4-5-0--0--0-4-5-7-5-4-5-|
  .......       .............

|-----------------------------|
|-----------------------------|
|-----------------------------|
|-4h5-4h5-0--0--0-4h5-7p5-4h5-|
|---------0--0----------------|
|---------0--0----------------|


|-----------------------------|
|-----------------------------|
|-----------------------------|
|-4-5-4-5-0--0--0-4-5-7-5-4-5-|
|-4-5-4-5-0--0--0-4-5-7-5-4-5-|
|-4-5-4-5-0--0--0-4-5-7-5-4-5-|


End with CHORUS riff
Comments