Creed - Illusion Chords & Tabs

 

Illusion Chords & Tabs

Creed Chords & Tabs

Version: 2 Type: Tab 0 ratings
1 star 2 stars 3 stars 4 stars 5 stars
comments

Illusion Tab

Creed
Illusion

Key
b -  bend
br - bend and release
/ - slide up
\ - slide down
\ \ \ \  -  Dive with bar.


Tuning: Dropped D, DADGBe

INTRO
------------------------------------------------------------------------------
-13b-13b-13b-13b-13b-13b------------------------------------------------------
-12b-12b-12b-12b-12b-12b--10-10-12--10-10-12p10--10-12-12-10------------------
-----------------------------------------------12------------12-10-10\--------
------------------------------------------------------------------------------
------------------------------------------------------------------------------
                                                                              

------------------------------------------------------------------------------
------------------------------------------------------------------------------
------------------------------------------------------------------------------
--4----3----3----0----4-------0-0--4----3----3---3-3-3-3-3--0--4--------------
--2----3----3----0-------5----0-0--2----3----3---3-3-3-3-3--0-----5----5-0----
-------3----3----0------------0-0-------3----3-0-3-3-3-3-3--0-----------------
                                                                              
VERSE
------------------------------------------------------------------------------
------------------------------------------------------------------------------
------------------------------------------------------------------------------
------------------------------------------------------------------------------
--2-2-2-2-2-2-----------------------------------------0--0--------------------
---------------3-3-3-3-3-3-3-3-3-3--0-0------0-0------0--0--------------------

------------------------------------------------------------------------------
------------------------------------------------------------------------------
------------------------------------------------------------------------------
------------------------------------------------------------------------------
--2-2-2-2-2-2-----------------------------------------0--0--------------------
---------------3-3-3-3-3-3-3-3-3-3--0-0------0-0------0--0--------------------
                                                                              

------------------------------------------------------------------------------
------------------------------------------------------------------------------
------------------------------------------------------------------------------
------------------------------------------------------------------------------
--2---------------------------------------------------0-0---------------------
--------------3--------------------0-0-------0-0------0-0---------------------
                                                                              

------------------------------------------------------------------------------
------------------------------------------------------------------------------
------------------------------------------------------------------------------
------------------------------------------------------------------------------
--2---------------------------------------------------------------------------
--------------3-------3br--3----0-0---0---0--4--0----0----0--4--0-0-0---------
                                                                              
CHORUS
------------------------------------------------------------------------------
------------------------------------------------------------------------------
------------------------------------------------------------------------------
--4---4-4-4--3-----3-3-----3-3-3---0---0-0-0---4-----4--------0--0--0---------
--2---2-2-2--3-----3-3-----3-3-3---0---0-0-0------------5-----0--0--0---------
-------------3-----3-3--0--3-3-3---0---0-0-0------------------0--0--0---------
                                                                              
[ Tab from: http://www.guitartabs.cc/tabs/c/creed/illusion_tab_ver_2.html ]
------------------------------------------------------------------------------
------------------------------------------------------------------------------
------------------------------------------------------------------------------
--4----4-4-4--0----3---3-3-3--0-0-----0--0--0--0--4----4----------------------
--2----2-2-2--0----3---3-3-3--0-0-----0--0--0--0----------5------5p0----------
--------------0----3---3-3-3--0-0-----0--0--0--0------------------------------
                                                                              
SOLO
------------------------------------------------------------------------------
------------------------------------------------------------------------------
------------------------------------------------------------------------------
--------------------------------------------------5---------------------------
--5-----------3-3-3h5-3-3-3h5----------5-7-8--7-8----7-7-8--5-5-5-7-3---3/5---
------------------------------------------------------------------------------
                                                                              

------------------------------------------------------------------------------
------------------------------------------------------------------------------
--------------6-7-9-6-7---6---------------------------------------------------
--------5-7-8-----------8---7-8-5-7---5---------------------------------------
--5-7-8-----------------------------8---7-8-5-7-8-5-7-8-5-7-8-0\-\-\-\--------
--------------------------------------------------------------0\-\-\-\--------
                                                                              

------------------------------------------------------------------------------
------------------------------------------------------------------------------
------6--7---6-7-6----6-7-9-7-6---------6-7---6-7-6---6-7-9-7-6---------------
----7---------------------------8-7---7-------------------------8-7-----------
--5--------8--------7---------------5-------8-------7-------------------------
------------------------------------------------------------------------------
                                                                              

------------------------------------------------------------------------------
------------------------------------------------------------------------------
------6--7---6-7-6----6-7-9-7-6---------6-7---6-7-6---6-7-9-7-6-0-------------
----7---------------------------8-7---7-------------------------0-------------
--5--------8--------7---------------5-------8-------7-------------------------
------------------------------------------------------------------------------
                                                                              

--10-10-10-10-10-10-10-10-10-10-10-10-10-10-10-10-10-10-10-10-10-10-10-10-10--
--x--x--x--x--x--x--x--x--x--x--x--x--x--x--x--x--x--x--x--x--x--x--x--x--x---
--7--7--7--7--7--7--7--7--7--7--7--7--7--7--7--7--7--7--7--7--7--7--7--7--7---
------------------------------------------------------------------------------
------------------------------------------------------------------------------
------------------------------------------------------------------------------
                                                                              

--10-10-10-10-10-10-10-10-10-10-10-10-10-10-10-10-10-10-10-10-10-10-10-10-10--
--x--x--x--x--x--x--x--x--x--x--x--x--x--x--x--x--x--x--x--x--x--x--x--x--x---
--7--7--7--7--7--7--7--7--7--7--7--7--7--7--7--7--7--7--7--7--7--7--7--7--7---
------------------------------------------------------------------------------
------------------------------------------------------------------------------
------------------------------------------------------------------------------

BRIDGE                                                                       
----------------------------------------------------------------------------
----------------------------------------------------------------------------
----------------------------------------------------------------------------
-12----12--0--0--8----8---8--8--0--0--0--10-----10--0--0--7----7--7--7-0--0-
-12----12--0--0--8----8---8--8--0--0--0--10-----10--0--0--7----7--7--7-0--0-
-12----12--0--0--8----8---8--8--0--0--0--10-----10--0--0--7----7--7--7-0--0-

							     2 Times
--------------------------------------------------------------------|
--------------------------------------------------------------------|
--------------------------------------------------------------------|
--------------------------------------------------------------------|
--------------------------------------------0-----------------------|
--4-5-4-5-0----0-0-0-4-5-7-5-4-0----4-5-4-5-0----0-0-0-4-5-7-5-4-0--|

			 				        2 Times
-----------------------------------------------------------------------|
-----------------------------------------------------------------------|
-----------------------------------------------------------------------|
------------0--0-------------------------------0--0--------------------|
--9-10-9-10-0--0----9-10-12-10-9-0---9-10-9-10-0--0----9-10-12-10-0-0--|
------------0--0-0-----------------------------0--0-0-------------0-0--|


--------------------------------|-----------------------------------------------------------------------
--------------------------------|-----------------------------------------------------------------------
--------------------------------|-----------------------------------------------------------------------
--4-5-4-5-0---0----4-5-7-5-4-0--|--4---4-4-4--3-----3-3-----3-3-3---0---0-0-0---4-----4--------0--0--0--
--4-5-4-5-0---0----4-5-7-5-4-0--|--2---2-2-2--3-----3-3-----3-3-3---0---0-0-0------------5-----0--0--0--
--4-5-4-5-0---0----4-5-7-5-4-0--|-------------3-----3-3--0--3-3-3---0---0-0-0------------------0--0--0--

End On
----------
----------
----------
--3-------
--3-------
--3-------

thanks to dan fisher for this tab

trevor jones
timmy91199@yahoo.ca
Comments