Creed - Illusion Chords & Tabs

 

Illusion Chords & Tabs

Creed Chords & Tabs

Version: 2 Type: Bass Tab 0 ratings
1 star 2 stars 3 stars 4 stars 5 stars
comments

Illusion Bass Tab

Intro
G|----------------------------|
D|----------------------4-----|
A|--2---------------------5---|
D|--------3---3b--0---------0-|
Play 6 times and on the 5th time play it like this...

G|------------------------------|
D|------------------------4-----|
A|----2---------------------5---|
D|-5\-------3---3b--0---------0-|

Verse
G|---------------------------------------|
D|---------------------------------------|
A|-2-2-2-2-2-----------------------------|
D|------------3-3-3-3-3-3-3-3---00---00--|
Play 4 times and on the 2nd and 3rd time play it like this...

G|------------------------------------------|
D|------------------------------------------|
A|-2-2-2-2-2--------------------------------|
D|------------3-3-3-3-3-3-3-3---00-/\-00-/\-|

Chorus
G|----------------------------|
D|----------------------4-----|
A|--2---------------------5---|
D|--------3---3b--0---------0-|
Play 4 times and on the 4th time play it like this...

G|----------------------------|
D|----------------------4-----|
A|--2~--------------------5---|
D|---------3~--3b--3--------0-|
            slight x

Verse
G|---------------------------------------|
D|---------------------------------------|
A|-2-2-2-2-2-----------------------------|
D|------------3-3-3-3-3-3-3-3---00---00--|
Play 4 times and on the 2nd and 3rd time play it like this...

G|-----------------------------------------|
D|-----------------------------------------|
A|-2-2-2-2-2-------------------------------|
D|------------3-3-3-3-3-3-3-3---00---00-/\-|
[ Tab from: http://www.guitartabs.cc/tabs/c/creed/illusion_btab_ver_2.html ]
Chorus
G|----------------------------|
D|----------------------4-----|
A|--2---------------------5---|
D|--------3---3b--0---------0-|
Play 4 times and on the 4th time play it like this...

G|----------------------------|
D|----------------------4-----|
A|--2~--------------------5---|
D|---------3~--3b--3--------0-|
            slight x

Guitar solo
G|----------------------------------------------|
D|-0-----------------2----0------3------------2-|
A|------1----3---0-------------1----3----0------|
D|----------------------------------------------|
Play 5 times and play slooooow!!

Chorus
G|----------------------------|
D|----------------------4-----|
A|--2---------------------5---|
D|--------3---3b--0---------0-|
Play 4 times and on the 4th time play it like this...

G|----------------------------|
D|----------------------4-----|
A|--2~--------------------5---|
D|---------3~--3b--3--------0-|
            slight x

Interlude
G|--------------------------------|
D|-0-------------2--0----3------2-|
A|----1--3-0----------1----3--0---|
D|--------------------------------|

Fast Part
G|-------------------------|
D|-------------------------|
A|-------------------------|
D|-4-5-4-5-0---4-5-7-5-4-0-|
Play 5 times (play really fast)

Chorus
G|----------------------------|
D|----------------------4-----|
A|--2---------------------5---|
D|--------3---3b--0---------0-|
Play 4 times and on the 4th time play it like this...

G|----------------------------|
D|----------------------4-----|
A|--2~--------------------5---|
D|---------3~--3b--3--------0-|
            slight x

Outro
G|-------|
D|-------|
A|-------|
D|-00-0~-|
Comments