Creed - Higher Chords & Tabs

 

Higher Chords & Tabs

Creed Chords & Tabs

Version: 4 Type: Tab 0 ratings
1 star 2 stars 3 stars 4 stars 5 stars
comments

Higher Tab

   
Song: Higher
By: Creed
Tabbed by: Derrick Barth (http://www.EyeOnRawk.homestead.com/home.html)

Hey everybody, I have never found a tab to this song that was 
exactly accurate, so here goes.

REMEMBER: It\'s in drop-d tuning 
(fret the 6th string on the 7th fret and loosen the string until it sounds like the 5th string). If you\'re not in drop-d tuning the whole song will sound crappy.

X = Mute
B = Bend
H = Hold
/ = Slide Up
\\ = Slide Down

Intro (I don\'t always strum the notes on E, A, and D with the main line, but oh well…the intro is still playable without em if you ask me.)
E/-----------------------------------------------------------------------------------------
B/-----------------------------------------------------------------------------------------
G/---7---9---11----11h--12--11----9---9---11---12b----11---9---9---11-x--9---7---7-9-9-7---
D/---0---0----0-----0----0---0----7---7----7----7-----7----7---7---7--x--7---5---5-5-5-5---
A/---0---0----0-----0----0---0----7---7----7----7-----7----7---7---7--x--7---5---5-5-5-5---
E/---0---0----0-----0----0---0----7---7----7----7-----7----7---7---7--x--7---5---5-5-5-5---

E/-------------------------------------------------
B/-------------------------------------------------
G/---7-7-7---12--11---11----11-----12-11---9---7---
D/---5-5-5----0---0----0-----0-----0---0---0---0---
A/---5-5-5----0---0----0-----0-----0---0---0---0---
E/---5-5-5----0---0----0-----0-----0---0---0---0---

The part the drums play after intro (it\'s not in 
the song, I just play it for more sound):
E/---x-x-x---x-x-x---
B/---x-x-x---x-x-x---
G/---x-x-x---x-x-x---
D/---x-x-x---x-x-x---
A/---x-x-x---x-x-x---
E/---x-x-x---x-x-x---

Guitar Rhythm Figure 1:
E/-----------------------------------------------------------
B/-------------------------------------------------------3---
G/-------------------------------------------------------2---
D/---0----x-x-7-----x-x-5------5-0-0---0-5-0-0---0-5-0---0---
A/---0----x-x-7-----x-x-5------5-0-0---0-5-0-0---0-5-0---0---	
E/---0----x-x-7-----x-x-5------5-0-0---0-5-0-0---0-5-0---0---


Verse 
(strum down and up):	           Fill A:
E/--------				E/---0------------0---------
B/---3---				B/------3-----3-----3-------
G/---2---				G/---------2------------2---
D/---0---				D/--------------------------
A/---0---				A/--------------------------
E/--------				E/--------------------------

Pre-Chorus:
E/-----------------------------------------------------------------------
B/-----------------------------------------------------------------------
G/-----------------------------------------------------------------------
D/---4-4-4-4-4-4-4-4-4-4-4-4-4-4-4-4---5-5-5-5-5-5-5-5-5-5-5-5-5-5-5-5---
A/---4-4-4-4-4-4-4-4-4-4-4-4-4-4-4-4---5-5-5-5-5-5-5-5-5-5-5-5-5-5-5-5---
E/---4-4-4-4-4-4-4-4-4-4-4-4-4-4-4-4---5-5-5-5-5-5-5-5-5-5-5-5-5-5-5-5---
[ Tab from: http://www.guitartabs.cc/tabs/c/creed/higher_tab_ver_4.html ]
E/--------------------------------------------------------------------
B/-------------------------------------------------/-20-20-20-20-20---
G/-------------------------------------------------/-19-19-19-19-19---
D/---4-4-4-4-4-4-4-4-4-4-4-4-4-4-4-4---5------------------------------
A/---4-4-4-4-4-4-4-4-4-4-4-4-4-4-4-4---5------------------------------
E/---4-4-4-4-4-4-4-4-4-4-4-4-4-4-4-4---5------------------------------

Chorus:
E/-----------------------------------------
B/---3---3---2---3---3---------------------
G/---2---2---2---2---2---------------------
D/---0---0---0---0---0-----5---5-4---4-0---
A/---0---0---0---0---0-----5---5-4---4-0---
E/-------------------------5---5-4---4-0---

Fill B:				Fill C:			Fill D
E/-----------------------       E/------------------	E/-----------------------
B/-----------------------	B/------------------	B/-----------------------
G/---6h-7---9---7-6h-7---	G/---4b-5-4---------	G/-----------------------
D/-----------------------	D/--------------5---	D/---5-0-0---0-5-0---0---
A/-----------------------	A/------------------	A/---5-0-0---0-5-0---0---
E/-----------------------	E/------------------	E/---5-0-0---0-5-0---0---

Fill E:
E/-------------------------------------------
B/-------------------------------------------
G/-------------------------------------------
D/---5---10-9-----5---10-9-------------------
A/---5------------5--------10---(let ring)---
E/---5------------5--------------------------

The Song

-Intro

-Guitar Rhythm Figure 1 w/ Intro

-Verse 1
When dreamin\', I\'m gone into another world,
time and time again.
At sunrise, I fight to stay asleep, 
cuz I don\'t (Fill A) wanna leave the comfort, of this place.
Cuz there\'s a hunger, longing to escape,
From the life I live, when I\'m awake.

-Pre-Chorus-
So let\'s go there, 
let\'s make our escape,
C\'mon, let\'s go there,
Why just can\'t we stay.

 -Chorus-
Can you take me higher.

-Fill B

-Chorus
To a place where blind men see.

-Fill C

-Chorus
Can you take me higher.

-Chorus
To a place with golden streams.

-Verse 2
Although I\'d, like the world to change,
It helps me to appreciate those nights and those dreams (Fill A).
But my friend, I\'d sacrifice all those nights,
If I could make the earth and my dreams the same
The only difference is, to let love, replace all our hate.

-Pre-Chorus-

-Chorus-

-Pre-Chorus-

-Guitar Rhythm Figure 1 w/Intro

-Guitar Rhythm Figure 1 (2 times) then Fill E
Oh up high I feel like I, have a life for love, for the first time.
Set up high I\'m strong enough to take these dreams and make them mine.

-Intro

-Intro then Fill D
Set up high I\'m strong enough, to take these dreams and make them mine.

-Chorus-

-Chorus
-Fill C
-Chorus
-Fill B
-Chorus
-Fill B
-Chorus
-Fill B
-Chorus

That\'s it! I am absolutely certain that this is accurate (as in they\'re all the right chords). 
You can email me at boxerboy382@aol.com if you think otherwise
Comments