Creed - Hide Chords & Tabs

 

Hide Chords & Tabs

Creed Chords & Tabs

Version: 8 Type: Tab 0 ratings
1 star 2 stars 3 stars 4 stars 5 stars
comments

Hide Tab

   
Artist: Creed
Song: Hide
Album: Weathered
Written by: Mark Tremonti and Scott Stapp
Tabbed by: Drew Montgomery
Tuning: Open-Bb(F-Bb-F-Bb-D-F)
Key: . = palm mute, b = bend, h = hammer on, / = slide up

Alright, I know the tuning's wierd, but that's how he
plays it. There are multiple guitars being played through
several parts of the song, and I'll list them all.
God bless and rock on!!!

Intro(guitar 1)(slight distortion)

F-|--------------------------------------------12-----------|
D-|------------------------------------------------12-------|
Bb|---------------------------------------------------------|
F-|----9b---9-9b---10-----9b---9-9b---10--------------------|
Bb|--0----0------0------0----0------0-----------------------|
F-|---------------------------------------------------------|

F-|------------------12-12-12-12-12-12-12-12-12-------------|
D-|------------------12-12-12-12-12-12-12-12-12-------------|
Bb|------------------12-12-12-12-12-12-12-12-12-------------|
F-|----9b-9-9b---10--10-10-10-10-10-10-10-10-10--9h10-------|
Bb|--0----0----0-0---0--0--0--0--0--0--0--0--0---0----------|
F-|---------------------------------------------------------|

Intro(guitar 2)(distortion)

F-|---------------------------------------------------------|
D-|---------------------------------------------------------|
Bb|---------------------------------------------------------|
F-|----9b-9-9b---7--7--7-7-7-7-7--7-7-----5--5--------------|
Bb|--0----0----0-0--0--0-0-0-0-0--0-0-----0--0--------------|
F-|------------------------------------0--------------------|

Intro(guitar 3)(distortion)

F-|-----12-------12----------12-------12-------12-12-12-12--|
D-|--12----12----12-12----12----12----12-12----12-12-12-12--|
Bb|-----------12-------12----------12-------12-12-12-12-12--|
F-|---------------------------------------------------------|
Bb|---------------------------------------------------------|
F-|---------------------------------------------------------|

Intro/Interlude(guitar 1)(clean)

F-|-------------------------0------0-0-0---0-0--------------|
D-|---------------------------0----0-0-0---0-0--------------|
Bb|--------0----------0---------0--0-0-0---0-0-------0------|
F-|------4----0-----4---4----------7-7-7h9-9-9--7-----------|
Bb|----4----------2----------------7-7-0---0-0--0-----------|
F-|--2----------0---------0--------5-5------------0---------|

Verse(clean)
[ Tab from: http://www.guitartabs.cc/tabs/c/creed/hide_tab_ver_8.html ]
F-|-----------------------0---------0-0-0---0------0--------|
D-|-------------------------0----0--0-0-0---0------0--------|
Bb|--------0---------0-----------0--0-0-0---0------0---0----|
F-|------4---4-----4-------------7--7-7-7h9-9------7--------|
Bb|----4---------2-----2------/7----7-7-0-----0--0---4------|
F-|--2---------0-------0------/5----5-5--------------0------|
     ...................
F-|-------------------------0------0-0-0---0-0--------------|
D-|---------------------------0----0-0-0---0-0--------------|
Bb|--------0----------0---------0--0-0-0---0-0-------0------|
F-|------4----0-----4---4----------7-7-7h9-9-9--7-----------|
Bb|----4----------2----------------7-7-0---0-0--0-----------|
F-|--2----------0---------0--------5-5------------0---------|

F-|------------------------0--------0-0-0-0-0-0-0-0-0-0-0---|
D-|--------------------------0----0-0-0-0-0-0-0-0-0-0-0-0---|
Bb|--------0---------0---------0--0-0-0-0-0-0-0-0-0-0-0-0---|
F-|------4---4-----4---4----------4-4-4-4-4-4-4-5-5-5-5-----|
Bb|----4---------2-------2--------5-5-5-5-5-5-5-5-5-5-5-----|
F-|--2---------0--------------------------------------------|

Chorus(distortion)

F-|---------0--0-------------------------0------0-----------|
D-|----0h1--1-----------------------0-0------------0--------|
Bb|---------0----2h4----------0-----0-0-------0------0------|
F-|---------0--------5-4h5-4--0-------0----0----------------|
Bb|--0------0-----------------------------------------------|
F-|------------------------------4--------------------------|

F-|-------------------------0---------0--0--0--0--0--0--0-0-|
D-|---------------------------0----0--0--0--0--0--0--0--0-0-|
Bb|--------0---------0----------0--0--0--0--0--0--0--0--0-0-|
F-|------4---0-----4---4-----------12-12-12-12-12-12-12-12--|
Bb|----4---------2-----------------12-12-12-12-12-12-12-12--|
F-|--2---------0---------0---------10-10-10-10-10-9--9--10--|

Bridge(distortion)

F-|-------------------------0--0--0--0--0--0--0--0--0--0----|
D-|-------------------0-----0--0--0--0--0--0--0--0--0--0----|
Bb|----------------------0--0--0--0--0--0--0--0--0--0--0----|
F-|--4-4----4--4-4-4--------12-12-12-12-12-12-12-12-12------|
Bb|--4-4--2-2--2-2-2--------12-12-12-12-12-12-12-12-12------|
F-|--2-2--0-0--0-0-0--------10-10-10-10-10-10-10-10-10------|

Outro(guitar 1)(slight distortion)

F-|--------------------12----12----12----12----12----12-----|
D-|-----------------------12----12----12----12----12----12--|
Bb|---------------------------------------------------------|
F-|----9b---9-9b---10---------------------------------------|
Bb|--0----0------0------------------------------------------|
F-|---------------------------------------------------------|

Outro(guitar 2)(slight distortion)

F-|--10-10-10-10-10-10-10-10-10-10--------------------------|
D-|--12-12-12-12-12-12-12-12-12-12--------------------------|
Bb|--12-12-12-12-12-12-12-12-12-12--------------------------|
F-|---------------------------------------------------------|
Bb|---------------------------------------------------------|
F-|---------------------------------------------------------|

Enjoy!!!
Comments