Creed - Hide Chords & Tabs

 

Hide Chords & Tabs

Creed Chords & Tabs

Version: 11 Type: Tab 0 ratings
1 star 2 stars 3 stars 4 stars 5 stars
comments

Hide Tab

Band-Creed
Song-Hide
Album-Weatherd
By-Mike

I play this song alot and I think this tab is dead on!
Tuning- F Bb F Bb D F trust me on the tuning i know it looks weird but trust me!

Intro

----------------------------           ----------12-----
----------------------------           --------------12-
---------------------------- 2x then-->-----------------
-----9b--(9)--9--9--(9)--10-           -----------------
---0--------0----------0----           -----------------
----------------------------           -----------------

-------------------------------0-------------0---0---0---0-0--------------
------------------------------------0--------0---0---0---0-0--------------
-------0--------------0-----------------0----0---0---0---0-0------------0-
-----4-----0-------4----4--------------------7---7---7/9-9-9-----7--------
---4-------------2---------------------------7---7---0---0-0-----0--------
-2------------0-----------0------------------5---5------------------0-----

Verse

------------------------0-----------0--0--0---0-------------------
--------------------------0------0--0--0--0---0----------0--------
-------0----------0--------------0--0--0--0---0----------0------0-
-----4----4-----4----------------7--7--7--7/9-9----------7--------
---4----------2------2-------/7-----7--7--0---0-0----0------4-----
-2----------0--------0-------/5-----5--5------0-------------0-----
P.M....................

Chorus
[ Tab from: http://www.guitartabs.cc/tabs/c/creed/hide_tab_ver_11.html ]
--------0--0-------------------------------------0-----------0------------
----0H1-1------------------------------0--0------------------------0------
--------0----2H4-------------0---------0--0-------------0--------------0--
--------0---------5--4H5--4--0------------0---------0---------------------
--0-----0-----------------------------------------------------------------
---------------------------------4----------------------------------------

----------------------------0----------0----0--0---0--0--0--0---0---0--0--0
------------------------------0--------0----0--0---0--0--0--0---0---0--0--0
-------0-------------0---------------0-0----0--0---0--0--0--0---0---0--0--0
-----4------0------4---4---------------12---12-12--12-12-12-12-12--12-12-12
---4-------------2---------------------12---12-12--12-12-12-12-12--12-12-12
-2-------------0---------0-------------10---10-10--10-10-10-10--9---9-10-10

Then you do the interlude which is the verse.

End with

---------------------------------------12------12------12-------12-------12-
-------------------------------------------12------12------12-------12------
----------------------------------------------------------------------------
----9B----(9)----9B----(9)----10--------------------------------------------
-0------------0------------0------------------------------------------------
----------------------------------------------------------------------------

Well thats the tab for Hide it's a great song and was a pain to figure out but
i think this is a good one! Questions or comments you can e-mail me at
demonolith@hotmail.com or My_sacrifice02@hotmail.com
Comments