Creed - Hide Chords & Tabs

 

Hide Chords & Tabs

Creed Chords & Tabs

Version: 10 Type: Tab 0 ratings
1 star 2 stars 3 stars 4 stars 5 stars
comments

Hide Tab

Title:  Hide
Artist:  Creed
Album:  Weathered
Tabbed by:  Franklin Ibon 
Written by: Mark Tremonti / Scott Stapp
Tunning: EBGDAD

I dedicate this to jenny choy!!!
Intro
E  :------------------------|------------------------|13-10-------------|
B  :--3-4-3---3-3-4-3---4~--|--3-4-3---3-3-4-3---4~--|------------------|
G  :--------3---------3-----|--------3---------3-----|------------------|
D  :------------------------|------------------------|------------------|
A  :1-----------------------|1-----------------------|------------------|
D  :------------------------|------------------------|------------------|

E  :------------------------|
B  :--3-4-3---3-3-4-3---4~--|
G  :--------3---------3-----| 2x
D  :------------------------|                              
A  :1-----------------------| 
D  :------------------------|

Verses
E  :----------------|------------------|----------------|--------------|----------------|--------------|
B  :----------------|------6-----------|----------------|--------------|----6-----------|--------------|
G  :----------------|--------7---5-5-7-|--5----7-7-5----|--------------|------7---5-5-7-|-5----7-7-5---|2x
D  :5---7-8-5-7---7-|8-7-----------3-3-|--3----3-3-3----|5---7-8-7-7---|8-----------3-3-|-3----3-3-3---|
A  :------------3---|----3---------3-3-|--3----3-3-3-0--|------------3-|--3---------3-3-|-3----3-3-3-0-|
D  :--5-------3-----|------3---3-------|----------------|--5-------3---|----3---3-------|--------------|
 
Chorus  
E  :----------------|----------------|----------------|----------------|----------------|--------------|
B  :-------6--------|------------6---|----------------|-------------6--|----------------|--------------|
G  :----------7-5/7-|---------------7|----------------|---------------7|---5-5-7---5---7|-7-5----------|2x
D  :8-----------3-3-|8---7-7---7-----|3---2-0--5---7-8|-5-7---7-8------|-----3-3---3---3|-3-3----------|
A  :----8-------3-3-|------7---7-----|----------------|-----3-----3----|-----3-3---3---3|-3-3----------|
D  :--8-------------|------7---7-----|-----------5----|---3---------3--|-3--------------|--------------|
[ Tab from: http://www.guitartabs.cc/tabs/c/creed/hide_tab_ver_10.html ]
E  :----------------|----------------|----------------|-13-10----------|
B  :--3-4-3---3--3-4|3---4~----3-4-3-|--3--3-4-3---4~-|----------------|
G  :--------3-------|--3-------------|3----------3----|----------------| 2x
D  :----------------|----------------|----------------|----------------|
A  :1---------------|--------1-------|----------------|----------------|
D  :----------------|----------------|----------------|----------------|

E  :----------------|---------10--10-|10-10/11-11-11-11-|10-11-----------|
B  :--3-4-3---3--3-4|3---4~---11--11-|11-11-11-11-11-11-|11-11-----------|
G  :--------3-------|--3------10--10-|10-10-10-10-10-10-|10-10-----------| 4x
D  :----------------|----------------|------------------|----------------|
A  :1---------------|----------------|------------------|----------------|
D  :----------------|----------------|------------------|----------------|

Pre-Chorus 
E  :----------------|------------------|----------------|
B  :----------------|------6-----------|----------------|
G  :----------------|--------7---5-5-7-|--5----7-7-5----| 
D  :5---7-8-5-7---7-|8-7-----------3-3-|--3----3-3-3----|
A  :------------3---|----3---------3-3-|--3----3-3-3-0--|
D  :--5-------3-----|------3---3-------|----------------|
 
Chorus Ending
E  :----------------|----------------|----------------|----------------|----------------|-------------|
B  :-------6--------|------------6---|----------------|-------------6--|----------------|-------------|
G  :----------7-5/7-|---------------7|----------------|---------------7|---5-5-7---5---7|-7-5---------|4x
D  :8-----------3-3-|8---7-7---7-----|3---2-0--5---7-8|-5-7---7-8------|-----3-3---3---3|-3-3---------|
A  :----8-------3-3-|------7---7-----|----------------|-----3-----3----|-----3-3---3---3|-3-3---------|
D  :--8-------------|------7---7-----|-----------5----|---3---------3--|-3--------------|-------------|

Outro
E  :----------------|----------10--10-|10-10/11-11-11-11-|10-11-----------|
B  :--3-4-3---3--3-4|-3---4~---11--11-|11-11-11-11-11-11-|11-11-----------|
G  :--------3-------|---3------10--10-|10-10-10-10-10-10-|10-10-----------| 4x
D  :----------------|-----------------|------------------|----------------|
A  :1---------------|-----------------|------------------|----------------|
D  :----------------|-----------------|------------------|----------------|

E  :----------------|----------------|
B  :--3-4-3---3--3-4|-3---4~---------|
G  :--------3-------|---3------------|
D  :----------------|----------------|
A  :1---------------|----------------|
D  :----------------|----------------|


for comments e-mail me at wwwdotfranklin@yahoo.com
Comments