Creed - Hide Chords & Tabs

 

Hide Chords & Tabs

Creed Chords & Tabs

Version: 1 Type: Bass Tab 0 ratings
1 star 2 stars 3 stars 4 stars 5 stars
comments

Hide Bass Tab

Artist:  Creed
Title:  Hide

I dunno what it is, there is just something lacking in the other two versions for
this song. So I went and improvised a little. It sounds totally kewl with the song
and it gives it that little something extra that the other versions are missing.

I have it tabbed out on a 5 string but as you can see it is very playable on a 
4 string in regular tuning. 
Intro
G------------------------------------------------------------------------
D----------8----------8----------8----------8----------------------------
A------------------------------------------------------------------------
E--6-6-6-6----6-6-6-6----6-6-6-6----6-6-6-6------------------------------
B------------------------------------------------------------------------

Verse
G---------------------------------------------------------------
D---------------------------------------------------------------
A---------------------------------------------------------------
E--3-33-1-11-111/6-6-66-66--------3-33-1-11-111/6-6-66-66-------
B---------------------------------------------------------------pause
[ Tab from: http://www.guitartabs.cc/tabs/c/creed/hide_btab.html ]
G---------------------------------------------------------------
D---------------------------------------------------------------
A-----------------------------------------------1//6------------
E--3-33-1-11-111/6-6-66-66--------3-33-1-11-111-----------------
B---------------------------------------------------------------

G------------------------------
D------------------------------
A--6-66-666686-----------------
E-------------806--------------
B------------------------------

Chorus
G---------------------------------------------------------------
D---------------------------------------------------------------
A------------------------------------------6-66-666686----------
E---6-6666-6h8-6-5-5-55-555-3-33-11-11----------------806-------
B---------------------------------------------------------------x3

Bridge
G--------------------------------------------
D--------------------------------------------
A-------------1---------1---------1---------1
E----6\--------------------------------------
B--------------------------------------------

That should be all the parts involved in the song. The order is pretty simple to
figure out, so that shouldnt be a problem to figure out. The only problem I could
possibly see is the rhythm that I play. got any questions e-mail at sosa101@aol.com
Comments