Creed - Freedom Fighter Chords & Tabs

 

Freedom Fighter Chords & Tabs

Creed Chords & Tabs

Version: 3 Type: Tab 0 ratings
1 star 2 stars 3 stars 4 stars 5 stars
comments

Freedom Fighter Tab

#----------------------------------PLEASE NOTE--------------------------------# 
#This file is the author's own work and represents their interpretation of the# 
#song. You may only use this file for private study, scholarship, or research.# 
#-----------------------------------------------------------------------------# 
#-----------------------------------------------------------------------------# 

Author/Artist: Creed 
Title: Freedom Fighter 
Album: Weathered 
Tuning: Drop D 
Transcribed by: Matty N
Email: Matt2332@excite.com


Intro - Play 3x Then this - 
----------------------------|----------------------------------| 
----------------------------|----------------------------------| 
----------------------------|----------------------------------| 
-------------------------3--|----------------6p5p3-----3-------| 
-0-0--------3--0-0--3--5----|--0-0--------3---------5-----5-3--| 
-0-0--5--6-----0-0----------|--0-0--5--6-----------------------| 

Play 3x - Then this - 
----------------------------|-----------------------------| 
----------------------------|-----------------------------| 
----------------------------|-----------------------------| 
-------------------------3--|--6b--6b--6p5p3-----3--------| 
-0-0--------3--0-0--3--5----|-----------------5-----5--3--| 
-0-0--5--6-----0-0----------|-----------------------------| 


Verse - (all palm muted except for the bends, in at 0:19) 
Play 3x - Then this - 
----------------------------|----------------------------------| 
----------------------------|----------------------------------| 
----------------------------|----------------------------------| 
-------------------------3--|----------------6p5p3-----3-------| 
-0-0--------3--0-0--3--5----|--0-0--------3---------5-----5-3--| 
-0-0--5--6-----0-0----------|--0-0--5--6-----------------------| 

Play 3x - Then this - 
----------------------------|-----------------------------| 
----------------------------|-----------------------------| 
----------------------------|-----------------------------| 
-------------------------3--|--6b--6b--6p5p3-----3--------| 
-0-0--------3--0-0--3--5----|-----------------5-----5--3--| 
-0-0--5--6-----0-0----------|-----------------------------| 

[ Tab from: http://www.guitartabs.cc/tabs/c/creed/freedom_fighter_tab_ver_3.html ]
Bridge - (with the fuzzy background vocals, in at 0:37) 
--------------------------------------------------------------------------| 
--------------------------------------------------------------------------| 
--------------------------------------------------------------------------| 
-0-0-0-0--/10-10-10-10--9-9-9-9--\5-5-5--4-4--3-3-3-3--7-7-7-7\--2-2-2-2--| 
-0-0-0-0--/10-10-10-10--9-9-9-9--\5-5-5--4-4--3-3-3-3--7-7-7-7\--2-2-2-2--| 
-0-0-0-0--/10-10-10-10--9-9-9-9--\5-5-5--4-4--3-3-3-3--7-7-7-7\--2-2-2-2--| 

--------------| 
--------------| 
--------------| 
-0-5-3-0-3-0--| 
-0-5-3-0-3-0--| 
-0-5-3-0-3-0--| 


Then the verse - in at 0:46 


Chorus - (in at 1:05) "I'm a freedom fighter, no remorse . . ." 
--------------------------------------------------------------------------| 
--------------------------------------------------------------------------| 
--------------------------------------------------------------------------| 
-0-0-0-0--/10-10-10-10--9-9-9-9--\5-5-5--4-4--3-3-3-3--7-7-7-7\--2-2-2-2--| 
-0-0-0-0--/10-10-10-10--9-9-9-9--\5-5-5--4-4--3-3-3-3--7-7-7-7\--2-2-2-2--| 
-0-0-0-0--/10-10-10-10--9-9-9-9--\5-5-5--4-4--3-3-3-3--7-7-7-7\--2-2-2-2--| 

--------------| 
--------------| 
--------------| 
-0-5-3-0-3-0--| 
-0-5-3-0-3-0--| 
-0-5-3-0-3-0--| 

Face to face with me . . . (in at 1:14) 
-------------------------------------------------| 
-------------------------------------------------| 
-------------------------------------------------| 
-0--x-x-x-x--0--x-x-x-x--0--x-x-x---9-7-5-7-8-7--| 
-0--x-x-x-x--0--x-x-x-x--0--x-x-x---9-7-5-7-8-7--| 
-0--x-x-x-x--0--x-x-x-x--0--x-x-x---9-7-5-7-8-7--| 


Bridge - Cant you hear us coming? . . . . . 
-------------------------------------------------| 
-------------------------------------------------| 
-------------------------------------------------| All Palm Muted 
-0--x-x-x-x--0--x-x-x-x--0--x-x-x---9-7-5-7-8-7--| (1:27) 
-0--x-x-x-x--0--x-x-x-x--0--x-x-x---9-7-5-7-8-7--| 
-0--x-x-x-x--0--x-x-x-x--0--x-x-x---9-7-5-7-8-7--| 

Screaming part - "Can't you see we're coming? . . ." 
---------------------------------------------| 
---------------------------------------------| 
---------------------------------------------| In at (1:51) 
---------------------------------9-8-7-5-7-5-| 
--------------2------------------9-8-7-5-7-5-| 
-9-8-7-5-7-5----5b--9-8-7-5-7-5--9-8-7-5-7-5-| 

Then this riff (In at - 1:55) "Can't you se we're coming?" 
---------------------------------------------------| 
---------------------------------------------------| 
---------------------------------------------------| 
-0--0h2p0------0--0h2p0------0--0h2p0-------0-1-1--| 
-0--------3-0--0--------3-0--0--------3-0---0-1-1--| 
-0-------------0-------------0--------------0-1-1--| 


Then it ends on the chorus - in at 2:13 


Very last part - "Face to face, Face to face, Face to face . . ." 
----------------------------------------| 
----------------------------------------| 
----------------------------------------| 
-5-3-0-3--0--5-3-0-3--0--5-3-0-3---0-0--| 
-5-3-0-3--0--5-3-0-3--0--5-3-0-3---0-0--| 
-5-3-0-3--0--5-3-0-3--0--5-3-0-3---0-0--| 


Tab Key: 
h = hammer on 
p = pull off 
/ = slide up 
\ = slide down
Comments