Creed - Freedom Fighter Chords & Tabs

 

Freedom Fighter Chords & Tabs

Creed Chords & Tabs

Version: 1 Type: Tab 0 ratings
1 star 2 stars 3 stars 4 stars 5 stars
comments

Freedom Fighter Tab

Creed                                
Freedom Fighter                                 

This song is in 3:4 time
85 beats per minute
4 dashes are a quarter note    Q
2 dashes are an eight note     E
1 dash is an sixteenth note    S
Dropped D also
/ = slide
h = hammer on/pull off
b = bend up 1 and a half
x = dead note


Lead
     E  S S S S E  S S S S    E  S S S S E  S S S S    E  S S S S E  S S S S                                  
E||------------------------|------------------------|------------------------|
B||------------------------|------------------------|------------------------|
G||------------------------|------------------------|------------------------|
D||----------------------3-|----------------------3-|----------------------3-|
A||--0--0-----3-0--0-3-5---|--0--0-----3-0--0-3-5---|--0--0-----3-0--0-3-5---|
D||--0--0-3-5---0--0-------|--0--0-3-5---0--0-------|--0--0-3-5---0--0-------|


  E  S S S S E  S S S S    E  S S S S E  S S S S    E  S S S S E  S S S S                            
------------------------|------------------------|------------------------|
------------------------|------------------------|------------------------|
------------------------|------------------------|------------------------|
-------------6/---3-----|----------------------3-|----------------------3-|
--0--0-----3----5---5-3-|--0--0-----3-0--0-3-5---|--0--0-----3-0--0-3-5---|
--0--0-3-5--------------|--0--0-3-5---0--0-------|--0--0-3-5---0--0-------|


  E  S S S S E  S S S S    Q    E  E  S S S S    E  S S S S E  S S S S                       
------------------------|---------------------|------------------------|
------------------------|---------------------|------------------------|
------------------------|---------------------|------------------------|
----------------------3-|--5b---5b-6/---3-----|----------------------3-|
--0--0-----3-0--0-3-5---|-------------5---5-3-|-----x-----3----x-3-5---|
--0--0-3-5---0--0-------|---------------------|--0--x-3-5---0--x-------|

[ Tab from: http://www.guitartabs.cc/tabs/c/creed/freedom_fighter_tab.html ]
  E  S S S S E  S S S S    E  S S S S E  S S S S    E  S S S S E  S S S S                                                                 
------------------------|------------------------|------------------------|
------------------------|------------------------|------------------------|
------------------------|------------------------|------------------------|
----------------------3-|----------------------3-|-------------6/---3-----|
-----x-----3----x-3-5---|-----x-----3----x-3-5---|-----x-----3----5---5-3-|
--0--x-3-5---0--x-------|--0--x-3-5---0--x-------|--0--x-3-5--------------|


  E  S S S S E  S S S S    E  S S S S E  S S S S    E  S S S S E  S S S S                                                                 
------------------------|------------------------|------------------------|
------------------------|------------------------|------------------------|
------------------------|------------------------|------------------------|
----------------------3-|----------------------3-|----------------------3-|
-----x-----3----x-3-5---|-----x-----3----x-3-5---|-----x-----3----x-3-5---|
--0--x-3-5---0--x-------|--0--x-3-5---0--x-------|--0--x-3-5---0--x-------|


  Q    E  E  S S S S    E  S S E  E  S S S     E  S S E  Q    E                                     
---------------------|----------------------|--------------------|
---------------------|----------------------|--------------------|
---------------------|------------5--5-5-5--|--4--4-4-4----------|
--5b---5b-6/---3-----|--0--0-0-0--5--5-5-5--|--4--4-4-4--5----4--|
-------------5---5-3-|--0--0-0-0--3--3-3-3--|--2--2-2-2--5----4--|
---------------------|--0--0-0-0------------|------------5----4--|


  E  S S E  E  E  S S    E  S S E  S S S S S S                                    
----------------------|------------------------|---|---|---|---||
----------------------|------------------------|---|---|---|---||
----------------------|------------------------|---|---|---|---||
--3--3-3-3h-7--7--7-7h|--2--2-2-2--5-3-0-3-5-0-|---|---|---|---||
--3--3-3-3h-7--7--7-7h|--2--2-2-2--5-3-0-3-5-0-|---|---|---|---||
--3--3-3-3h-7--7--7-7h|--2--2-2-2--5-3-0-3-5-0-|---|---|---|---||
Comments