Creed - Bullets Chords & Tabs

 

Bullets Chords & Tabs

Creed Chords & Tabs

Version: 4 Type: Tab 0 ratings
1 star 2 stars 3 stars 4 stars 5 stars
comments

Bullets Tab

   
Song:Bullets
Artist:Creed
Album:Weathered
Email:foosball4321@yahoo.com
Tuning: Drop-D

Guitar notations:
/-slide     x-mute string
p-pull-off
pm.-palm mute
h-hammer-on

Intro(clean)
E|----------------------------------------------------------------
B|----------------------------------------------------------------
G|----------------------------------------------------------------
D|----------------------------------------------------------------
A|----------------------------------------------------------------
D|-0000000000000000000000000000000000000000000000000000000--------

When Scotts voice comes in

E|----------------------------------------------------------------
B|----------------------------------------------------------------
G|----------------------------------------------------------------
D|----------------------------------------------------------------
A|-12------------12-------12--------12----------12--13---13-------
D|-0---00000-----0--0000--0---000---0----0000---0---0----0---0000


E|----------------------------------------------------------------
B|----------------------------------------------------------------
G|----------------------------------------------------------------
D|----------------------------------------------------------------
A|-13---------13--------13--13-12--10----------10----10--12--13---
D|-0---0000---0---0000--0---0--0---0----0000---0-----0---0---0----


E|----------------------------------------------------------------
B|----------------------------------------------------------------
G|---------------------------------------------------------12-----
D|----------------------14-------14---------14--15---------x------
A|--12--12--------------12-------12---------13--13---------10-----
D|--0---0----000000-----0--0000--0----000---0---0--00000---0------


[ Tab from: http://www.guitartabs.cc/tabs/c/creed/bullets_tab_ver_4.html ]
E|----------------------------------------------------------------
B|----------------------------------------------------------------
G|--------12---14----------------15-----------15/-17--------------
D|--------x----x-----------------x-------------x--x---------------
A|--------10---12----------------13-----------13/-15--------------
D|-0000---0----0-----0000000-----0-- 00000----0---0---------------


Verse(heavy distortion)
E|----------------------------------------------------------------
B|----------------------------------------------------------------
G|----------------------------------------------------------------
D|----------------------------------------------------------------
A|-----------------15--------------13-----------------------------
D|-13-12-0-12-0-12----12-0-12-0-12----12-0-12-0-0-13-12-0-10-12-0-

Chorus-3x(distortion)-
E|----------------------------------------------------------------
B|----------------------------------------------------------------
G|----------------------------------------------------------------
D|-------------0---------------0--------------0--------------0-1--
A|-0-1-0-1-0-1-0---0-1-0-1-0-1-0--0-1-0-1-0-1-0--0-1-0-1-0-1-0---3
D|-0-1-0-1-0-1-0---0-1-0-1-0-1-0--0-1-0-1-0-1-0--0-1-0-1-0-1-0----

Breakdown(distortion)
E|----------------------------------------------------------------
B|----------------------------------------------------------------
G|----------------------------------------------------------------
D|-13-12-0-10-12-0-13-12-0-10-12-0--------------------------------
A|-13-12-0-10-12-0-13-12-0-10-12-0--------------------------------
D|-13-12-0-10-12-0-13-12-0-10-12-0--------------------------------



Bridge(distortion)
E|----------------------------------------------------------------
B|----------------------------------------------------------------
G|------------------------------14---15/17-17---------------------
D|-14------14-14-15---12----14--x----x----------------------------
A|-12------12-13-13---10----12--12---13/15-15---------------------
D|-0--000--0--0--0----0--00-0---0--0-0----------------------------


If you have any questions or suggestions 
e-mail me at: foosball4321@yahoo.com






Comments