Creed - Bullets Chords & Tabs

 

Bullets Chords & Tabs

Creed Chords & Tabs

Version: 2 Type: Tab 0 ratings
1 star 2 stars 3 stars 4 stars 5 stars
comments

Bullets Tab

   
tabbed by guitarplayer47
key
/ - slide
p - pull off
pm. - palm mute


INTRO 1/BRIDGE (Listen to the Song for the timing)
e|------------------------------------------------------------------------------------------
B|------------------------------------------------------------------------------------------
G|------------------------------------------------------------------------------------------
D|-7-7-7-7-7-7-7-7-7-7-7-8-8-8-8-8-8-8-8-8-8-8-5-5-5-5-5-5-5-5-5-5-5/7-8-7-7-7-7-7-7-7-7-7-7
A|------------------------------------------------------------------------------------------
D|------------------------------------------------------------------------------------------

e|------------------------------------------------------------------------------------------
B|------------------------------------------------------------------------------------------
G|-9-9-9-9-9-9-9-9-9-9-9-10-10-10-10-10-10-10-10-10-10-10-7-7-7-7-7-7-7-7-7-7-7/9-10-9-9-9-9
D|-7-7-7-7-7-7-7-7-7-7-7--8--8--8--8--8--8--8--8--8--8--8-5-5-5-5-5-5-5-5-5-5-5/7--8-7-7-7-7
A|------------------------------------------------------------------------------------------
D|------------------------------------------------------------------------------------------

e|--------------
B|--------------
G|-9-9-9-9-9-9-9
D|-7-7-7-7-7-7-7
A|--------------
D|--------------

INTRO 2 (DISTORTION)
e|------------------------------------------------------
B|------------------------------------------------------
G|------------------------------------------------------
D|------------------------------------------------------
A|-------------15p12-------------13p12------------------
D|-13-12-12-12-------12-12-12-12-------13-12-10-10-12-10
[ Tab from: http://www.guitartabs.cc/tabs/c/creed/bullets_tab_ver_2.html ]
VERSE
e|------------------------------------------------
B|------------------------------------------------
G|------------------------------------------------
D|------------------------------------------------
A|-------------15-------------13------------------
D|-13-12-12-12----12-12-12-12----13-12-10-10-12-10
   PM.............................................

CHORUS
e|------------------------------------
B|------------------------------------
G|------------------------------------
D|-0-0-0-0-0-0-12-0-0-0-0-0-0--0--0--0
A|-0-0-0-0-0-0-12-0-0-0-0-0-0--0--0--0
D|-0-0-0-0-0-0-12-0-0-0-0-0-0--0--0--0
   PM.........    PM..................

e|------------------------------------
B|------------------------------------
G|------------------------------------
D|-0-0-0-0-0-0-12-0-0-0-0-0-0-12-13-10
A|-0-0-0-0-0-0-12-0-0-0-0-0-0-12-13-10
D|-0-0-0-0-0-0-12-0-0-0-0-0-0-12-13-10
   PM.........    PM.........

BEFORE BRIDGE
e|---------------------------
B|---------------------------
G|---------------------------
D|-13-12-10-12-10-10--0--0--0
A|-13-12-10-12-10-10--0--0--0
D|-13-12-10-12-10-10--0--0--0
                      PM.....

BRIDGE (REPEAT INTRO 1 THEN PLAY THIS)
e|------------------------------------------------------------------------------------------
B|------------------------------------------------------------------------------------------
G|-9-----9-----9-----9-------10-------10-------10-------10--------12-------12-------12------
D|-7-7-7-7-7-7-7-7-7-7--8--8--8--8--8--8--8--8--8--8--8--8--10-10-10-10-10-10-10-10-10-10-10
A|-7-7-7-7-7-7-7-7-7-7--8--8--8--8--8--8--8--8--8--8--8--8--10-10-10-10-10-10-10-10-10-10-10
D|-7-7-7-7-7-7-7-7-7-7--8--8--8--8--8--8--8--8--8--8--8--8--10-10-10-10-10-10-10-10-10-10-10
     PM.   PM.   PM.    PM..     PM..     PM..     PM..     PM...    PM...    PM...    PM...

e|-------------
B|-------------
G|-14----15--17
D|-12----13--15
A|-12----13--15
D|-12----13--15
Comments