Creed - Bullets Chords & Tabs

 

Bullets Chords & Tabs

Creed Chords & Tabs

Version: 1 Type: Bass Tab 0 ratings
1 star 2 stars 3 stars 4 stars 5 stars
comments

Bullets Bass Tab

Artist: Creed
Album: Weathered
Song: Bullets
Tabbed By: Taylor Wellborn

Tunning: Drop D (DADG)

Intro (w/pick)(Riff 1)
|------------------------------|
|-0-000-000-000--0-000-000-000-|
|------------------------------|
|------------------------------|
Repeat 

Riff 2
|----------------------|-----------------|
|----------------------|-----------------|
|----------------------|-----------------|
|-12-0-0-0-0-0-1-0-0-0-|-12-0-0-0-0-0-1/-|

|----------------------|-----------------|
|----------------------|-----------------|
|----------------------|-----------------|
|-12-0-0-0-0-0-1-0-0-0-|-12-0-0-0-0-0-1/-|

Repeat (Riff 2) 4 more times

Riff 3

|---------------------|
|---------------------|
|---------------------|
|-0--1--0--1--0--1--0-|

|---------------------------|
|---------------------------|
|---------------------------|
|-0--1--0--1--0--1--0--0--0-|

|---------------------|
|---------------------|
|---------------------|
|-0--1--0--1--0--1--0-|

|---------------------------|
|----------------------1----|
|-------------------------5-|
|-0--1--0--1--0--1--0-------|

Riff 4
|---------------------|
|---------------------|
|---------------------|
|-0--1--0--1--0--1--0-|

|---------------------------|
|---------------------------|
|---------------------------|
|-0--1--0--1--0--1--0--0--0-|
[ Tab from: http://www.guitartabs.cc/tabs/c/creed/bullets_btab.html ]
|---------------------|
|---------------------|
|---------------------|
|-0--1--0--1--0--1--0-|

|---------------------------|
|---------------------------|
|---------------------------|
|-0--1--0--1--0--1--0--0--0-|

Riff 5
|-------|-----------|-----|
|-------|-----------|-----|
|-------|-----------|-----|
|-12\---|-0---X---0-|--0--|

Riff 6
|-----------|-----|
|-----------|-----|
|-----------|-----|
|-0---0---0-|--0--|

Repeat (Riff 1) 2 times

Repeat (Riff 1) 5 times

Riff 7
|-------------------------|
|-------------------------|
|-------------------------|
|-0-0---0---0-0-0-0-0-0-0-|

|-------------------------|
|-------------------------|
|-------------------------|
|-0---0-0-0-0-0---0-0-0-0-|

|-------------------------|
|-------------------------|
|-------------------------|
|-0---0-0---0-0---0-0---0-|

|-------------------------|
|-------------------------|
|-------------------------|
|-0-0-0-0-0-0-0-0-0-0-0-0-|

Repeat (Riff 3) 3 times

Repeat (Riff 4) 1 time

Riff 8
|--------|------------|-----|
|--------|------------|-----|
|------/-|------------|-----|
|-0------|--0---0---0-|--0--|

Riff 9
|---------|
|---------|
|---------|
|-0--x--0-|

|---------------------------------|
|---------------------------------|
|---------------------------------|
|-13-12-0-10-12-0-13-12-0-10-12-0-|

|--------------------------|
|--------------------------|
|--------------------------|
|-13-12-0-10-12-10-0--0--0-|

|----|
|----|
|----|
|-0~-|
Comments