Creed - Beautiful Chords & Tabs

 

Beautiful Chords & Tabs

Creed Chords & Tabs

Version: 7 Type: Tab 0 ratings
1 star 2 stars 3 stars 4 stars 5 stars
comments

Beautiful Tab

   
    _____________
   / Creed      /  I think this song is about a boy telling about this girl, who
  / Beautiful  /  seduces every man with her tempting appearance. He tells about
 / Human Clay /  how he dreamed of her, how he passionately wanted to have her
/____________/  - and how he eventually was fooled.



Mainly (the exception is the solo) the song is actually only played by two
guitars switching distortion on and off with distortion pedals. The most common
way of recording guitars today is to record each sound separately, so this is a
rare sight. Iíve marked a switch with vertical lines of stars in the tab charts
- you wonít miss them.

When thereís only those two guitars, Iíve omitted to write Gtr I, II above every
line in the tabs, so when two connected lines are written, Gtr I (right speaker)
is playing the top line, while Gtr II (left speaker) is playing the bottom line,
and when only one line is written, both the guitars are playing that part. In
the solo Iíve of course marked the guitars properly to avoid confusion.

Gtr I, II (D A D G B E) Ė Electric Clean/Heavily Distorted
Gtr III (D A D G B E) Ė Electric Overdriven



1st Verse:
 Q=75 bpm
 4/4
  S S   E   S S S S S S E   S S S  S  S S   E   S S S S S S S S Q       S S
|-----|-----------------------------------|---------------------------------|
|-----|-----------------------------------|---------------------------------|
|-----|-----------------------------------|---------------------------------|
|-----|-3-------3h5-----2-------3--0------|-3-------3h5-----2---------------|
|-----|-----------------------------------|---------------------------------|
|-0-0-|-----0-0-----0-0-----0-0-------0-0-|-----0-0-----0-0---0-0-------0-0-|
|
| S S   Q       S E.    Q       S  E.       Q       S E.    Q       Q
|-----|-----------------------------------|---------------------------------|
|-----|-----------------------------------|---------------------------------|
|-----|-----------------------------------|---------------------------------|
|-----|-3-------3h5-----2-------3-(3)-----|-3-------3h5-----2-------3-------|
|-----|----------------------------5------|---------------------------------|
|-0-0-|-----------------------------------|---------------------------------|


                                                         *on*
                                                             PM|
  E   S S S S S S E   S S S  S  S S   E   S S S S S S e      S S S   S S S
|-----------------------------------|---------------------**---------------|
|-----------------------------------|---------------------**---------------|
|-----------------------------------|---------------------**---------------|
|-3-------3h5-----2-------3--0------|-3-------3h5-----2---**-----3b4.5r3p0-|
|-----------------------------------|---------------------**---------------|
|-----0-0-----0-0-----0-0-------0-0-|-----0-0-----0-0-----**-0-0-----------|
|
|
| Q       S E.    Q       S  E.       Q       S E.    e      E   S   S S S
|-----------------------------------|---------------------**---------------|
|-----------------------------------|---------------------**---------------|
|-----------------------------------|---------------------**---------------|
|-3-------3h5-----2-------3-(3)-----|-3-------3h5-----2---**-----3b4.5r3p0-|
|----------------------------5------|---------------------**---------------|
|-----------------------------------|---------------------**---------------|


                                         PM|     PM|      PM|
  E.    S S S E.    S S S E   S S   E    S S S S S S E    S S S E    S
|---------------------------------|------------------------------------|
|---------------------------------|------------------------------------|
|-3-----3-3---3-----3-3---3---3---|------------------------------------|
|-1-----1-1p0-1-----1-1p0-1---1p0-|-3~-------3h5-----2~-------3------0-|
|-1-----1-1p0-1-----1-1p0-1---1p0-|------0-0-----0-0------0-0---5~---0-|
|-1-----1-1p0-1-----1-1p0-1---1p0-|------0-0-----0-0------0-0--------0-|


              PM
  E.    S S S E   +H
|---------------------------------|
|---------------------------------|
|-3-----3-3---3---(3)-------------|
|-1-----1-1p0-1---(1)-------------|
|-1-----1-1p0-1---(1)-------------|
|-1-----1-1p0-1---(1)-------------|




2nd Verse:
 *off*
     E    S S S S S S E   S S S  S  S S      E   S S S S S S E   S E.    S S
|-**------------------------------------|------------------------------------|
|-**------------------------------------|------------------------------------|
|-**------------------------------------|------------------------------------|
|-**-3--------3h5-----2-------3-(3)-----|----3-------3h5-----2---------------|
|-**-----------------------------5------|------------------------------------|
|-**------0-0-----0-0-----0-0-------0-0-|--------0-0-----0-0-----0-0-----0-0-|
|
|                                        *off*
|   +W                                       Q       S E.    Q       Q
|---------------------------------------|-**---------------------------------|
|---------------------------------------|-**---------------------------------|
|---(3)---------------------------------|-**---------------------------------|
|---(1)---------------------------------|-**-3-------3h5-----2-------3-------|
|---(1)---------------------------------|-**---------------------------------|
|---(1)---------------------------------|-**---------------------------------|


                                                         *on*
                                                             PM|
  E   S S S S S S E   S S S  S  S S   E   S S S S S S e      S S S   S S S
|-----------------------------------|---------------------**---------------|
|-----------------------------------|---------------------**---------------|
|-----------------------------------|---------------------**---------------|
|-3-------3h5-----2-------3--0------|-3-------3h5-----2---**-----3b4.5r3p0-|
|-----------------------------------|---------------------**---------------|
|-----0-0-----0-0-----0-0-------0-0-|-----0-0-----0-0-----**-0-0-----------|
|
| Q       S E.    Q       S  E.       Q       S E.    e      E   S   S S S
|-----------------------------------|---------------------**---------------|
|-----------------------------------|---------------------**---------------|
|-----------------------------------|---------------------**---------------|
|-3-------3h5-----2-------3-(3)-----|-3-------3h5-----2---**-----3b4.5r3p0-|
|----------------------------5------|---------------------**---------------|
|-----------------------------------|---------------------**---------------|




Chorus:
                                           PM|     PM|      PM|
    E.    S S S E.    S S S E   S S   E    S S S S S S E    S S S E    S  3x
||----------------------------------|-------------------------------------||
||o---------------------------------|------------------------------------o||
||--3-----3-3---3-----3-3---3---3---|-------------------------------------||
||--1-----1-1p0-1-----1-1p0-1---1p0-|-3~-------3h5-----2~-------3------0--||
||o-1-----1-1p0-1-----1-1p0-1---1p0-|------0-0-----0-0------0-0---5~---0-o||
||--1-----1-1p0-1-----1-1p0-1---1p0-|------0-0-----0-0------0-0--------0--||


                                    PM-----|       PM--|       PM--|
  E.    S S S Q.          Q         S E    S E   S E   S E   S E   S
|---------------------------------|----------------------------------|
|---------------------------------|----------------------------------|
|-3-----3-3---3-----------3-------|----------------------------------|
|-1-----1-1p0-1-----------1-------|-0-0----0-0---0-0---0-0---0-0---0-|
|-1-----1-1p0-1-----------1-------|-0-0----0-0---0-0---0-0---0-0---0-|
|-1-----1-1p0-1-----------1-------|-0-0----0-0---0-0---0-0---0-0---0-|


        PM--|       PM--|     PM--------|     PM----|     PM----|
  E   S E   S E   S E   S E   S S   +S  S E   S E   S E   S E   S E
|---------------------------------|-----------------------------------|
|---------------------------------|-----------------------------------|
|-------------------------7b8-----|-------7b8---------7b8---------7---|
|-0---0-0---0-0---0-0---0-x---0-0-|-(0)-0-x---0-0---0-x---0-0---0-x---|
|-0---0-0---0-0---0-0---0-5b6-0-0-|-(0)-0-5b6-0-0---0-5b6-0-0---0-5---|
|-0---0-0---0-0---0-0---0-----0-0-|-(0)-0-----0-0---0-----0-0---0-----|


  +W
|---------------------------------|
|---------------------------------|
|-(7)-----------------------------|
|---------------------------------|
|-(5)-----------------------------|
|---------------------------------|




Interlude:
*off*
     E    S S S S S S E   S S S  S  S S   E   S S S S S S E   S S E   S S
|-**------------------------------------|---------------------------------|
|-**------------------------------------|---------------------------------|
|-**------------------------------------|---------------------------------|
|-**-3--------3h5-----2-------3-(3)-----|-3-------3h5-----2-------3-------|
|-**-----------------------------5------|---------------------------------|
|-**------0-0-----0-0-----0-0-------0-0-|-----0-0-----0-0-----0-0-----0-0-|


  E    S S S S S S E   S S S  S  S S   E   S S S S S S E   S S E   S S
|------------------------------------|---------------------------------|
|------------------------------------|---------------------------------|
|------------------------------------|---------------------------------|
|-3--------3h5-----2-------3-(3)-----|-3-------3h5-----2-------3-------|
|-----------------------------5------|---------------------------------|
|------0-0-----0-0-----0-0-------0-0-|-----0-0-----0-0-----0-0-----0-0-|
|
| E    S S S S S S E   S S S  S  S S   E   S S S S S S S E.    Q
|------------------------------------|---------------------------------|
|------------------------------------|---------------------------------|
|------------------------------------|-----------------0-3-----2-------|
|-3--------3h5-----2-------3-(3)-----|-3-------3h5---------------------|
|-----------------------------5------|---------------------------------|
|------0-0-----0-0-----0-0-------0-0-|-----0-0-----0-0-----------------|



[ Tab from: http://www.guitartabs.cc/tabs/c/creed/beautiful_tab_ver_7.html ]
3rd Verse:
    E    S S S S S S E   S S S  E    S   E   S S S S S S E   S S E   S S  3x
||-------------------------------------|----------------------------------||
||o------------------------------------|---------------------------------o||
||-------------------------------------|----------------------------------||
||--3--------3h5-----2-------3-(3)-----|-3-------3h5-----2-------3--------||
||o-----------------------------5------|---------------------------------o||
||-------0-0-----0-0-----0-0---------0-|-----0-0-----0-0-----0-0-----0-0--||


                                                         *on*
                                                             PM|
  E   S S S S S S E   S S S  E    S   E   S S S S S S e      S S S   S S S
|-----------------------------------|---------------------**---------------|
|-----------------------------------|---------------------**---------------|
|-----------------------------------|---------------------**---------------|
|-3-------3h5-----2-------3--3------|-3-------3h5-----2---**-----3b4.5r3p0-|
|---------------------------(5)-----|---------------------**---------------|
|-----0-0-----0-0-----0-0---------0-|-----0-0-----0-0-----**-0-0-----------|




Chorus:
                                           PM|     PM|      PM|
    E.    S S S E.    S S S E   S S   E    S S S S S S E    S S S E    S  3x
||----------------------------------|-------------------------------------||
||o---------------------------------|------------------------------------o||
||--3-----3-3---3-----3-3---3---3---|-------------------------------------||
||--1-----1-1p0-1-----1-1p0-1---1p0-|-3~-------3h5-----2~-------3------0--||
||o-1-----1-1p0-1-----1-1p0-1---1p0-|------0-0-----0-0------0-0---5~---0-o||
||--1-----1-1p0-1-----1-1p0-1---1p0-|------0-0-----0-0------0-0--------0--||


                                    PM-----|       PM--|       PM--|
  E.    S S S Q.          Q         S E    S E   S E   S E   S E   S
|---------------------------------|----------------------------------|
|---------------------------------|----------------------------------|
|-3-----3-3---3-----------3-------|----------------------------------|
|-1-----1-1p0-1-----------1-------|-0-0----0-0---0-0---0-0---0-0---0-|
|-1-----1-1p0-1-----------1-------|-0-0----0-0---0-0---0-0---0-0---0-|
|-1-----1-1p0-1-----------1-------|-0-0----0-0---0-0---0-0---0-0---0-|


        PM--|       PM--|     PM--------|     PM----|     PM----|
  E   S E   S E   S E   S E   S S   +S  S E   S E   S E   S E   S E
|---------------------------------|-----------------------------------|
|---------------------------------|-----------------------------------|
|-------------------------7b8-----|-------7b8---------7b8---------7---|
|-0---0-0---0-0---0-0---0-x---0-0-|-(0)-0-x---0-0---0-x---0-0---0-x---|
|-0---0-0---0-0---0-0---0-5b6-0-0-|-(0)-0-5b6-0-0---0-5b6-0-0---0-5---|
|-0---0-0---0-0---0-0---0-----0-0-|-(0)-0-----0-0---0-----0-0---0-----|


    S E   S  E    S E   S  E    S S  E
||-----------------------------------------||
||o---------------------------------------o||
||----------19b20---------19b20-----19b20--||
||-----------x-------------x---------x-----||
||o---------17b18---------17b18-----17b18-o||
||--0-0---0-------0-0---0-------0-0--------||


  S E   S  E    S E   S  E    S S S S    S  S  S  S  S  S  S  E    E    E    E   S
|-------------------------------------|--x--x--x--x--x--x--x--x----x----x----x-----|
|-------------------------------------|--x--x--x--x--x--x--x--x----x----x----x-----|
|---------19~-----------19~-----------|-19-19-19-19-19-19-19-19---19---19---19-----|
|----------x-------------x------------|--x--x--x--x--x--x--x--x----x----x----x---0-|
|---------17~-----------17~-----------|-17-17-17-17-17-17-17-17---17---17---17---0-|
|-0-0---0-------0-0---0-------0-0-0-0-|--x--x--x--x--x--x--x--x----x----x----x---0-|




Solo:
 Gtr I, II
  E.    S S S S E   E     S E   S   S    E.     S E   S E   S S S E   S   S
|-------------------------------------|-------------------------------------|
|-------------------------------------|-------------------------------------|
|-------------------------------------|-------------------------------------|
|-7-----7-7-7-7h9---9-----9-9---7---0-|--4------4-4---4h5---5-5-5-4---------|
|-5-----5-5-5-5-----5-----5-5---5---0-|--2------2-2---2-----2-2-2-2---0---0-|
|-5-----5-5-5-5-----5-----5-5---5---0-|--2------2-2---2-----2-2-2-2---0---0-|
|
|Gtr III
|                   T T S S S E     S    H.                      S E     S
|-------------------------------------|-------------------------------------|
|-------------------------------------|-------------------------------------|
|-------------------------------------|---------------------------7s9---s12-|
|-------------------4s7-7-7-7s9---s12-|-s9~---------------------------------|
|-------------------------------------|-------------------------------------|
|-------------------------------------|-------------------------------------|


    E.    S E     S E      S E   S S E      E.      S E    S E      S E   S S E
|----------------------------------------|----------------------------------------|
|----------------------------------------|----------------------------------------|
|----------------------------------------|----------------------------------------|
|---4-------------4h5------------5p4-----|--4--------------4h5------------5p4-----|
|---------0-0--------------0-0-------0---|----------0-0-------------0-0-------0---|
|---------0-0--------------0-0-------0---|----------0-0-------------0-0-------0---|
|
|   Q.            E    +H                   E.      E.     E    +H
|----------------------------------------|----------------14~--(14)~--------------|
|----------------------------------------|----------------------------------------|
|-s11-----------s14~--(14)~--------------|-11-----s12-----------------------------|
|----------------------------------------|----------------------------------------|
|----------------------------------------|----------------------------------------|
|----------------------------------------|----------------------------------------|




Bridge:
    E.    S S S S E   E   S E   S S   E.    S E   S E   S S S E   S S
||----------------------------------|---------------------------------|
||o---------------------------------|---------------------------------|
||----------------------------------|---------------------------------|
||--7-----7-7-7-7h9---9---9-9---7-0-|-4-----4-4---4h5---5-5-5-4-------|
||o-5-----5-5-5-5-----5---5-5---5-0-|-2-----2-2---2-----2-2-2-2---0-0-|
||--5-----5-5-5-5-----5---5-5---5-0-|-2-----2-2---2-----2-2-2-2---0-0-|


  E.    S E   S E   S E   S S E     E.    S E   S E   S E   S S E
|---------------------------------|----------------------------------||
|---------------------------------|---------------------------------o||
|---------------------------------|----------------------------------||
|-4-----------4h5---------5p4-----|-4-----------4h5---------5p4------||
|-------0-0---------0-0-------0---|-------0-0---------0-0-------0---o||
|-------0-0---------0-0-------0---|-------0-0---------0-0-------0----||




Chorus:
                                           PM|     PM|      PM|
    E.    S S S E.    S S S E   S S   E    S S S S S S E    S S S E    S  3x
||----------------------------------|-------------------------------------||
||o---------------------------------|------------------------------------o||
||--3-----3-3---3-----3-3---3---3---|-------------------------------------||
||--1-----1-1p0-1-----1-1p0-1---1p0-|-3~-------3h5-----2~-------3------0--||
||o-1-----1-1p0-1-----1-1p0-1---1p0-|------0-0-----0-0------0-0---5~---0-o||
||--1-----1-1p0-1-----1-1p0-1---1p0-|------0-0-----0-0------0-0--------0--||


                                    PM-----|       PM--|       PM--|
  E.    S S S Q.          Q         S E    S E   S E   S E   S E   S
|---------------------------------|----------------------------------|
|---------------------------------|----------------------------------|
|-3-----3-3---3-----------3-------|----------------------------------|
|-1-----1-1p0-1-----------1-------|-0-0----0-0---0-0---0-0---0-0---0-|
|-1-----1-1p0-1-----------1-------|-0-0----0-0---0-0---0-0---0-0---0-|
|-1-----1-1p0-1-----------1-------|-0-0----0-0---0-0---0-0---0-0---0-|


        PM--|       PM--|     PM--------|     PM----|     PM----|
  E   S E   S E   S E   S E   S S   +S  S E   S E   S E   S E   S E
|---------------------------------|-----------------------------------|
|---------------------------------|-----------------------------------|
|-------------------------7b8-----|-------7b8---------7b8---------7---|
|-0---0-0---0-0---0-0---0-x---0-0-|-(0)-0-x---0-0---0-x---0-0---0-x---|
|-0---0-0---0-0---0-0---0-5b6-0-0-|-(0)-0-5b6-0-0---0-5b6-0-0---0-5---|
|-0---0-0---0-0---0-0---0-----0-0-|-(0)-0-----0-0---0-----0-0---0-----|


    S E   S  E    S E   S  E    S S  E
||-----------------------------------------||
||o---------------------------------------o||
||----------19b20---------19b20-----19b20--||
||-----------x-------------x---------x-----||
||o---------17b18---------17b18-----17b18-o||
||--0-0---0-------0-0---0-------0-0--------||


                                                                 |---3---|   |---3---|
  S E   S  E    S E   S  E    S S S S    S  S  S  S  S  S  S  S  E   E   E   E   E   E
|-------------------------------------|--x--x--x--x--x--x--x--x--x---x---x---x---x---x--|
|-------------------------------------|--x--x--x--x--x--x--x--x--x---x---x---x---x---x--|
|---------19~-----------19~-----------|-19-19-19-19-19-19-19-19-19--19--19--19--19--19--|
|----------x-------------x------------|--x--x--x--x--x--x--x--x--x---x---x---x---x---x--|
|---------17~-----------17~-----------|-17-17-17-17-17-17-17-17-17--17--17--17--17--17--|
|-0-0---0-------0-0---0-------0-0-0-0-|--x--x--x--x--x--x--x--x--x---x---x---x---x---x--|


  W                                 +W
|---------------------------------|-----------------------------------|
|---------------------------------|-----------------------------------|
|---------------------------------|-----------------------------------|
|-0-------------------------------|-(0)-------------------------------|
|-0-------------------------------|-(0)-------------------------------|
|-0-------------------------------|-(0)-------------------------------|



She wears a coat of colour
Loved by some, feared by others
Sheís immortalized in young menís eyes

Lust she breeds in the eyes of brothers
Violent sons make bitter mothers
So close your eyes, hereís your surprise

In your mind sheís your companion
Vile instincts often candid
Your regret is all thatís left

The beautiful is empty
Beautiful is free
Beautiful loves no one
Beautiful stripped me
Stripped me
Stripped me
She stripped me

She told me where Iím going
And it's far away from home
I think I'll go there on my own



- 15th /October /05
Just mail me at Maitinin@gmail.com with questions, comments or corrections!
Comments