Creed - Beautiful Chords & Tabs

 

Beautiful Chords & Tabs

Creed Chords & Tabs

Version: 3 Type: Tab 0 ratings
1 star 2 stars 3 stars 4 stars 5 stars
comments

Beautiful Tab

E|--------------------------------------------------------------------
B|--------------------------------------------------------------------
G|--------------------------------------------------------------------
D|--3------3/5-------2------3---------repeat 3Xs-(verse)------------------------------
A|-----------------------------5---------------------------------------
D|----0 0-------0 0----0 0---------------------------------------------

[ Tab from: http://www.guitartabs.cc/tabs/c/creed/beautiful_tab_ver_3.html ]
E|--------------------------------------------------------------------
B|--------------------------------------------------------------------
G|------3--3-3---3-3-3------------------------------------------------
D|--3~--1--1-1-0-1-1-1--3-----3/5-------2------3------(chorus)-----
A|------1--1-1-0-1-1-1----------------------------5-------------------
D|------1--1-1-0-1-1-1----0 0------0 0----0 0-------------------------



       just repeat a couple of times and thats most of the song and 
       if u dont like this tab im sorry its my first and im only 14
       years old. peace out to all the heavy rockers out there!
Comments