Creed - Arms Wide Open Live Chords & Tabs

 

Creed Chords & Tabs

Version: 1 Type: Tab 0 ratings
1 star 2 stars 3 stars 4 stars 5 stars
comments

Arms Wide Open Live Tab

   
Artist: CREED	
Song: Arms Wide open			
Transcribed by: Will Anderson

  Clean
E- 3-3-333-----------------2-22-2-22------
B- 6-6-666----55-5-5-555---5-55-5-55-----7
G- 5-5-555----55-5-5-555---4-44-4-44-----7
D- 3-3-333----33-3-3-333---2-22-2-22-----5
A- 3-3-333-----------------2-22-2-22-----
E- 3-3-333-----------------2-22-2-22-----

    Dirty
E- 3-3-333----------------------2-22-2-22------------
B- 6-6-666-xx---55-5-5-555-xx---5-55-5-55-xx---7-7-77
G- 5-5-555-xx---55-5-5-555-xx---4-44-4-44-xx---7-7-77
D- 3-3-333-xx---33-3-3-333-xx---2-22-2-22-xx---5-5-55
A- 3-3-333-xx-------------------2-22-2-22------------
E- 3-3-333----------------------2-22-2-22-------------


E- -------------------------------------------------------------------------------------------------
B- (7\/ 5---5-3----5----5-3---------9\-----------------------------7-8-7-8-7-------7-8-7-8-7
G- (7)\ 5---5-3----5----5-3---------9\\\\7//////12-14-12---7-9--------------7-9------------
D- (5)\ 3----------3------------------------------------------------------------------------------
A- -------------------------------------------------------------------------------------------------
E- -------------------------------------------------------------------------------------------------

[ Tab from: http://www.guitartabs.cc/tabs/c/creed/arms_wide_open_live_tab.html ]
E- ------------- 7-7--7-7-------12b~~~~------------------------------
B- -----7/10\7--10-7-10-7-------12b~~~~5-----4-----3------2-2-22
G- 7-9-----------9--9--9-9-------------5-----4-----3------2-2-22
D- --------------7-7--7-7--------------3-----2-----1------0-0-00
A- --------------7-7--7-7----------------0h3---0h2---0h1--------
E- --------------7-7--7-7---------------------------------------------------


E- --------------------------------------------------------7b~~~-
B- 55------3-4-3--4------2-3-2--3------1-2-1--2-2-22-------7b~~~-
G- 55-3-5---------4--2-4--------3-1-3---------2-2-22----------------
D- 33-------------2-------------1-------------0-0-00----------------
A- --------------------------------------------------------------------------
E- ----------------------------------------------------------------------------


E- 3-3-333----------------------2-22-2-22------------
B- 6-6-666-xx---55-5-5-555-xx---5-55-5-55-x---7-7-77
G- 5-5-555-xx---55-5-5-555-xx---4-44-4-44-x---7-7-77
D- 3-3-333-xx---33-3-3-333-xx---2-22-2-22-x---5-5-55
A- 3-3-333-xx-------------------2-22-2-22------------
E- 3-3-333----------------------2-22-2-22-------------


E- --------------------------------
B- 5-5-555-----4-4-444-----2
G- 5-5-555-----4-4-444-----2
D- 3-3-333-----2-2-222-----0
A- ------------------------------
E- -------------------------------

 This is how I play it live, just listen to the cd to put it in order.
 /or \ = Slide
   b = Bend
~~~= vibrato
Comments