Creed - Arms Wide Open Correct Solo Chords & Tabs

 

Arms Wide Open Correct Solo Chords & Tabs

Creed Chords & Tabs

Version: 1 Type: Tab 0 ratings
1 star 2 stars 3 stars 4 stars 5 stars
comments

Arms Wide Open Correct Solo Tab

okay here is the correct version of the solo in the song:Arms wide open
Artist:Creed
Song:Arms wide open
Tabbed by drew

-----------------------------------------------------
-----------------------------------------------------
--9--9--------9-10--9--10-9~--------9-10--9--10-9~--
--------10--12-----------------10--12----------------
-----------------------------------------------------
-----------------------------------------------------

-----------------------------------------------------
-----------------------------------------------------
--------9-10--9--10-9~--10-9~-10-9~--10-9~-12^(1)r12-
-10--12----------------------------------------------
-----------------------------------------------------
-----------------------------------------------------
[ Tab from: http://www.guitartabs.cc/tabs/c/creed/arms_wide_open_correct_solo_tab.html ]
--------------------------------------------------------------
--------------10-11-10--11-10~---------------10-11-10--11-10~-
-10~~--10--12-------------------10~~--10--12------------------
--------------------------------------------------------------
--------------------------------------------------------------
--------------------------------------------------------------

-----------------------------------------------------
---------------10-11-10--11-10~-11-10~-11-10~-11-10~-
--10~~--10--12---------------------------------------
-----------------------------------------------------
-----------------------------------------------------
-----------------------------------------------------

--------------------------
--11-10~-14^(1/2)r14--12--
--------------------------
--------------------------
--------------------------
--------------------------
Comments