Creed - Are You Ready Chords & Tabs

 

Are You Ready Chords & Tabs

Creed Chords & Tabs

Version: 3 Type: Tab 0 ratings
1 star 2 stars 3 stars 4 stars 5 stars
comments

Are You Ready Tab

Person: Joshua Page

song: Are you ready

artist: Creed

tab: Artist: Creed
Album:  Human Clay
Title:  Are You Ready
Tabbed by Joshua Page (Jpage92355@aol.com) 10/4/99
Tabbed for Drop-D Tuning (Mark plays it open D).

Intro: (Clean)
E-|------------------------------------------------------------------|
B-|------------------------------------------------------------------|
G-|---------------------------------------------------2--------------|
D-|-----------------------------------------------------0------------|
A-|--3--5-5-3-5-5--3-5-5-5b-5-5--3-5-5-3-5-5-3---0--------1-1b3-1-3--|
D-|--0--0-0-0-0-0--0-0-0-0--0-0--0-0-0-0-0-0-0-0---0--------------0--|

Play this twice:
E-|--------------------------------------------------------|
B-|--------------------------------------------------------|
G-|--------------------------------------------------3-----|
D-|-----------------------------------------------1--3--3--|
A-|--3--5-5-3-5-5--3-5-5-5b-5-5--3-5-5-3-5-5-3----1--1--3--|
D-|--0--0-0-0-0-0--0-0-0-0--0-0--0-0-0-0-0-0-0-0--1-----3--|
                                                (Distortion)
Play this once:
E-|--------------------------------------------|
B-|--------------------------------------------|
G-|--------------------------------------------|
D-|--------------------------------------------|
A-|--3--5-5-3-5-5--3-5-5-5b-5-5--3-5-5-3-5-5b--|
D-|--0--0-0-0-0-0--0-0-0-0--0-0--0-0-0-0-0-0---|
End Intro

Verse: (Played Lower with Distortion)
Part 1:Play three times
E-|--------------------------------------------------------|
B-|--------------------------------------------------------|
G-|--------------------------------------------------3-----|
D-|-----------------------------------------------1--3--3--|
A-|--3--5-5-3-5-5--3-5-5-5b-5-5--3-5-5-3-5-5-3----1--1--3--|
D-|--0--0-0-0-0-0--0-0-0-0--0-0--0-0-0-0-0-0-0-0--1-----3--|
[ Tab from: http://www.guitartabs.cc/tabs/c/creed/are_you_ready_tab_ver_3.html ]
Part 2
E-|------------------------------------------------------------------|
B-|------------------------------------------------------------------|
G-|---------------------------------------------------2--------------|
D-|-----------------------------------------------------0------------|
A-|--3--5-5-3-5-5--3-5-5-5b-5-5--3-5-5-3-5-5-3---0--------1-1/3-1-3--|
D-|--0--0-0-0-0-0--0-0-0-0--0-0--0-0-0-0-0-0-0-0---0--------------0--|
End of Verse

Chorus:Play twice (Distortion)
E-|---------------------------------------------------------|
B-|--1--1--------------------------------------3------------|
G-|--0--0----------0h2--------------------------------------|
D-|--2--0--3---0-------0-2-3-2-------0--3-2-0-----0--3-2-0--|
A-|--3--2--3---0----------------2-3-------------------------|
D-|--------3---0--------------------------------------------|
End Chorus

Repeat Verse: Part 1 four times and then Chorus twice

1st Bridge:Play 6 times (Clean)
E-|-----5-3-2--------------------------------3------|
B-|--3----------0-1-0-------------------------------|
G-|--2--------2-------2--------2-----4---4-5---5-4--|
D-|--0------------------4-5-4----4-5---5------------|
A-|--0----------------------------------------------|
D-|-------------------------------------------------|

Play twice: (Distortion)
E-|-----5-3-2--------------------------------3------|
B-|--3----------0-1-0-------------------------------|
G-|--2--------2-------2--------2-----4---4-5---5-4--|
D-|--0------------------4-5-4----4-5---5------------|
A-|--0----------------------------------------------|
D-|-------------------------------------------------|

Play twice:
E-|-----5-3-2--------------------------------3--|
B-|--3----------0-1-0---------------------------|
G-|--2--------2-------2--------2-----4---4-5----|
D-|--0------------------4-5-4----4-5---5--------|
A-|--0------------------------------------------|
D-|---------------------------------------------|
End 1st Bridge

2nd Bridge:Play 4 times (Distortion)
E-|-------------------|
B-|-------------------|
G-|--5--7--11--9--12--|
D-|-------------------|
A-|--3--5---9--7--10--|
D-|-------------------|
End 2nd Bridge

End by playing Chorus 3 times and 2nd Bridge(Add wah last time
through.)


Comments