Creed - Alone Chords & Tabs

 

Alone Chords & Tabs

Creed Chords & Tabs

Version: 2 Type: Tab 0 ratings
1 star 2 stars 3 stars 4 stars 5 stars
comments

Alone Tab

Creed ft. Tool
Alone
submitted by: darkdarce


Intro play a few times
|-0-0-0-0-3-3-3-3-0-0-0-0-0-0-0-0-----|
|-0-0-0-0-0-0-0-0-0-0-0-0-1-1-1-1-----|
|-0-0-0-0-0-0-0-0-2-2-2-2-0-0-0-0-----|
|-2-2-2-2-0-0-0-0-2-2-2-2-2-2-2-2-----|
|-2-2-2-2-2-2-2-2-0-0-0-0-3-3-3-3-----|
|-0-0-0-0-3-3-3-3-0-0-0-0-------------|
[ Tab from: http://www.guitartabs.cc/tabs/c/creed/alone_tab_ver_2.html ]
verse, chorus, and bridge
|-0-0-0-0-3-3-3-3-0-0-0-0-0-0-0-0-0-0-0-0-3-3-3-3----------3-3-3-3----|
|-0-0-0-0-0-0-0-0-0-0-0-0-1-1-1-1-0-0-0-0-0-0-0-0----------0-0-0-0----|
|-0-0-0-0-0-0-0-0-2-2-2-2-0-0-0-0-0-0-0-0-0-0-0-0----------0-0-0-0----|
|-2-2-2-2-0-0-0-0-2-2-2-2-2-2-2-2-2-2-2-2-0-0-0-0-4-4-4-4-0-0-0-0-----|
|-2-2-2-2-2-2-2-2-0-0-0-0-3-3-3-3-2-2-2-2-2-2-2-2-4-4-4-4-2-2-2-2-----|
|-0-0-0-0-3-3-3-3-0-0-0-0----------0-0-0-0-3-3-3-3-2-2-2-2-3-3-3-3----|

solo
|--------------------------------------------------------------------------|
|--------------------------------------------------------------------------|
|-------------------------------5-7b7-7b-5---------------------------------|
|-7b-7b 7-7-7b-5---5---------------------7b7-5---5-7-5-7b-5-7-5------------|
|----------------7---7-5-7------------------7-------------------7-5b-5-----|
|--------------------------------------------------------------------------|

|----------------------|
|----------------------|
|----------------------|
|----------------------|
|-5h7p5----------------|
|-------7-5-7-3-2-2-3--|
Comments