Creed - Alone Chords & Tabs

 

Alone Chords & Tabs

Creed Chords & Tabs

Version: 1 Type: Tab 0 ratings
1 star 2 stars 3 stars 4 stars 5 stars
comments

Alone Tab

Band- Tool & Creed
Tuning- Drop D or standard tuning

This is a hidden song that Tool and Creed wrote so here it is.

Intro/Standard Tuning
|----3--------------3-----3---------3---------------3--2--3-|
|----0--0--1--------0--0--0---------0--0--1---------0--2--0-|
|-0--0--2--0-----0--0--2--0------0--0--2--0------0--0--4--0-|
|-2--0--2--2-----2--0--2--0------2--0--2--2------2--0--4--0-|
|-2--2--0--3-----2--2--0--2------2--2--0--3------2--2--2--2-|
|-0--3-----------0--3-----3------0--3------------0--3--2--3-|

Chorus/Verse
|----3---------------3-----3-|
|----0--0--1---------0--0--0-|
|-0--0--2--0------0--0--2--0-|
|-2--0--2--2------2--0--2--0-|
|-2--2--0--3------2--2--0--2-|
|-0--3------------0--3-----3-|
[ Tab from: http://www.guitartabs.cc/tabs/c/creed/alone_tab.html ]
Intro/Drop D Tuning
|------------------------------------------------------------|
|------------------------------------------------------------|
|------------------------------------------------------------|
|-2--5--7--10-----2--5--7--5-----2--5--7--10------2--5--4--5-|
|-2--5--7--10-----2--5--7--5-----2--5--7--10------2--5--4--5-|
|-2--5--7--10-----2--5--7--5-----2--5--7--10------2--5--4--5-|

Chorus/Verse
|----------------------------|
|----------------------------|
|----------------------------|
|-2--5--7--10-----2--5--7--5-|
|-2--5--7--10-----2--5--7--5-|
|-2--5--7--10-----2--5--7--5-|

Strumming Pattern
|--------------------------------------------------------------------------------------|
|--------------------------------------------------------------------------------------|
|--------------------------------------------------------------------------------------|
|-2-2-2-2---5--5-5-5---7---7-7-7---10---10----2-2-2-2---5--5-5-5---7---7-7-7---5---5---|
|-2-2-2-2---5--5-5-5---7---7-7-7---10---10----2-2-2-2---5--5-5-5---7---7-7-7---5---5---|
|-2-2-2-2---5--5-5-5---7---7-7-7---10---10----2-2-2-2---5--5-5-5---7---7-7-7---5---5---|

I would of never of thought Tool and Creed would join together and make a great song. 
you know the song).
Comments