Creation - Making Time Chords & Tabs

 

Making Time Chords & Tabs

Creation Chords & Tabs

Version: 1 Type: Bass Tab 0 ratings
1 star 2 stars 3 stars 4 stars 5 stars
comments

Making Time Bass Tab

Making Time (bass) - Creation


1st and 2nd verse:
g---------------------------------------
d--.-.----------------------------------
a--5-5----------------------------------
e-------5-3-0-(0000000)-----------------

prechorus

------------------------------------
------------------------------------
------------------------------------
---5 5 3 5 5 3 5....----------------

1st and 2nd chorus:
---------------------------------
---------------------------------
------------------5---------------
---3--------------------5----------
why do we have to carry on
always singing the same old song

[ Tab from: http://www.guitartabs.cc/tabs/c/creation/making_time_btab.html ]
------------------------------------
------------------------------------
------------------------------------
-5----3---5---------5----3---5------
 same old song, the same old song

solo...umm pointless chords on a violined guitar

3rd verse(key change):

--------------------------------------------
---2-2--------------------------------------
--------2-0---------------------------------
-------------2-repeat a lot till prechorus--


prechorus

------------------------------------
------------------------------------
--2-2-0-2--2-0-2...-----------------
------------------------------------

last chorus

--------------------------------------
--------------------------------------
---------7----------------------------
---5-------7--x2---7-5-7-----7-5-7----


Comments