Crease - Jenny Chords & Tabs

 

Jenny Chords & Tabs

Crease Chords & Tabs

Version: 1 Type: Bass Tab 0 ratings
1 star 2 stars 3 stars 4 stars 5 stars
comments

Jenny Bass Tab

i worked this tab out by using the root notes that the guitar part plays, but
cause the guitar tab i got was big ugly, strained y-front pants
i had to make bits up! but i love this song n spent ages sortin this damned tab
out so this is it n i'm telling you its correct! if u disagree than too bad!
trough i dont no much bout this band so if any of you lot do e-mail me at
fellmatt@hotmail.com!

Jenny:

the intro (x4) (well untill the singing starts)
g------------
d------------
a----66------
e-3-----66-88

verse (x4)
g------------------------------------|-------------
d------------------------------------|-------------
a----------66666666------------------|-----66------
e-33333333----------66666666-88888888|--3-----66-88

chorus    (X3)                       (X4)
g---------------------|------------------------------------
d---------------------|------------------------------------
a---6-666-------------|----------66666666------------------
e-3-------6-666-8-8888|-33333333----------66666666-88888888
[ Tab from: http://www.guitartabs.cc/tabs/c/crease/jenny_btab.html ]
verse (x4)
g------------------------------------|-------------
d------------------------------------|-------------
a----------66666666------------------|-----66------
e-33333333----------66666666-88888888|--3-----66-88

chorus    (X3)                       (X8)

g---------------------|------------------------------------
d---------------------|------------------------------------
a---6-666-------------|----------66666666------------------
e-3-------6-666-8-8888|-33333333----------66666666-88888888

the interlude:
    (X8)                   (X4)
g---------|------------------------------------
d---------|------------------------------------
a-----6---|----------66666666------------------
e-3333-686|-33333333----------66666666-88888888


chorus    (X3)                       fade out
g---------------------|------------------------------------
d---------------------|------------------------------------
a---6-666-------------|----------66666666------------------
e-3-------6-666-8-8888|-33333333----------66666666-88888888

the end
Comments