Cream - White Room Chords & Tabs

 

White Room Chords & Tabs

Cream Chords & Tabs

Version: 4 Type: Tab 0 ratings
1 star 2 stars 3 stars 4 stars 5 stars
comments

White Room Tab

Key
^bend
\slide

Sounds best with use of the wah wah pedal

-----10-------------10-------------10------------|
--10-----13-------------13-------------13--------|
-^12---------^12-12--------^12--12--------^12----|
-------------------------------------------------|
-------------------------------------------------|
-------------------------------------------------|

-------------------------------------------------|
-------------------------------------------------|
--12--10--12------10---12--10------10--12--10----|
--------------12---------------12----------------|
-------------------------------------------------|
-------------------------------------------------|
[ Tab from: http://www.guitartabs.cc/tabs/c/cream/white_room_tab_ver_4.html ]
----------------------------10-------------------|
-------------^13--^13--^13------13---------------|
-12--10-----------------------------^12--12---10-|
---------12--------------------------------------|
-------------------------------------------------|
-------------------------------------------------|

----------13----------13----------13--------13---|
--13--15------13--15------13--15-----13--15------|
-------------------------------------------------|
-------------------------------------------------|
-------------------------------------------------|
-------------------------------------------------|

you kind of have to listen to it to get the rhythm for it
any questions or commments are request for more clapton songs
willy174@aol.com
Comments