Cream - Sunshine Of Your Love Chords & Tabs

 

Sunshine Of Your Love Chords & Tabs

Cream Chords & Tabs

Version: 9 Type: Tab 0 ratings
1 star 2 stars 3 stars 4 stars 5 stars
comments

Sunshine Of Your Love Tab

   
this is one for people just startin' guitar....

  (E)
E---------------------------------------------|
B---------------------------------------------|
G---------------------------------------------|
D---------------------------------------------|
A---------------------------------------------|
E-12---12---10---12---7---6---5---0---3---0---|
it's get-ting near dark                   when

E---------------------------------------------|
B---------------------------------------------|
G---------------------------------------------|
D---------------------------------------------|
A---------------------------------------------|
E-12---12---10---12---7---6---5---0---3---0---|
light close their tired  eyes            i'll

E---------------------------------------------|
B---------------------------------------------|
G---------------------------------------------|
D---------------------------------------------|
A---------------------------------------------|
E-12---12---10---12---7---6---5---0---3---0---|
soon be with you,    my  love            i'll

E---------------------------------------------|
B---------------------------------------------|
G---------------------------------------------|
D---------------------------------------------|
A---------------------------------------------|
E-12---12---10---12---7---6---5---0---3---0---|
give you my dull sur  -  prise            i'll

[ Tab from: http://www.guitartabs.cc/tabs/c/cream/sunshine_of_your_love_tab_ver_9.html ]
E---------------------------------------------|
B---------------------------------------------|
D---------------------------------------------|
G---------------------------------------------|
A-12---12---10---12---7---6---5---0---3---0---|
E---------------------------------------------|
be    with  you, dar-lin',soon            i'll

E---------------------------------------------|
B----------------------------------------------|
D---------------------------------------------|
G---------------------------------------------|
A-12---12---10---12---7---6---5---0---3---0---|
E---------------------------------------------|
be with you when the stars  start fall - in
  (E)
E---------------------------------------------|
B---------------------------------------------|
G---------------------------------------------|
D---------------------------------------------|
A---------------------------------------------|
E-12---12---10---12---7---6---5---0---3---0---|

E---------------------------------------------|
B---------------------------------------------|
G---------------------------------------------|
D---------------------------------------------|
A---------------------------------------------|
E-12---12---10---12---7---6---5---0---3---0---|


    I'VE BEEN WAIT-ING SO LONG
B7          (hold)D    A(hold)
----------------------------------------
    TO    BE    WHERE   IM   GO-ING
B7          (hold)D            A(hold 
----------------------------------------
    IN THE     SUN-SHINE OF YOUR
B7          (hold)D      A(hold)
----------------------------------------
B7
LOVE.___________________________________
Comments