Cream - Sunshine Of Your Love Chords & Tabs

 

Sunshine Of Your Love Chords & Tabs

Cream Chords & Tabs

Version: 4 Type: Tab 3 ratings
1 star 2 stars 3 stars 4 stars 5 stars
comments

Sunshine Of Your Love Tab

this is a great song one of my favorite tunes from the power trio Cream if you have any
comments collins3342003@yahoo.com



e--------------------------------------------|
b--------------------------------------------|
g--------------------------------------------|
d--12-12-10-12-------------------------------|
a----------------12-11-10-----8h9p8h9--------|
E-------------------------10----------10-----|





e---------------------------------------------|
b---------------------------------------------|
g---------------------------------------------|
d--12-12-10-12--------------------------------|
a----------------12-11-10-----8h9p8h9p8-------|
E-------------------------10-----------10-----|


e--------------------------------------------------|
b--------------------------------------------------|
g-11-11-9--11--------------10h11p10h11p10----------|
d-12-12-10-12-----------12----------------12-------|
a-12-12-10-12--12-11-10----------------------------|
E-10-10-8--10--------------------------------------|






e--------------------------------------------------|
b--------------------------------------------------|
g-11-11-9--11--------------10h11p10h11p10----------|
d-12-12-10-12-----------12----------------12-------|
a-12-12-10-12--12-11-10----------------------------|
E-10-10-8--10--------------------------------------|





e--------------------------------------------------|
b--------------------------------------------------|
g-11-11-9--11--------------10h11p10h11p10----------|
d-12-12-10-12-----------12----------------12-------|
a-12-12-10-12--12-11-10----------------------------|
E-10-10-8--10--------------------------------------|





e--------------------------------------------------|
b--------------------------------------------------|
g-11-11-9--11--------------10h11p10h11p10----------|
d-12-12-10-12-----------12----------------12-------|
a-12-12-10-12--12-11-10----------------------------|
E-10-10-8--10--------------------------------------|




[ Tab from: http://www.guitartabs.cc/tabs/c/cream/sunshine_of_your_love_tab_ver_4.html ]
e--------------------------------------------------|
b--------------------------------------------------|
g-11-11-9--11--------------10h11p10h11p10----------|
d-12-12-10-12-----------12----------------12-------|
a-12-12-10-12--12-11-10----------------------------|
E-10-10-8--10--------------------------------------|





e--------------------------------------------------|
b--------------------------------------------------|
g-11-11-9--11--------------10h11p10h11p10----------|
d-12-12-10-12-----------12----------------12-------|
a-12-12-10-12--12-11-10----------------------------|
E-10-10-8--10--------------------------------------|




e-----------------------------------------|
b-----------------------------------------|
g--12-12-10-12----------------------------|
d--12-12-10-12-12-11-10---8h9p8h9p8-------|
a--10-10-8--10---------10-----------10----|
E-----------------------------------------|






e-----------------------------------------|
b-----------------------------------------|
g--12-12-10-12----------------------------|
d--12-12-10-12-12-11-10---8h9p8h9p8-------|
a--10-10-8--10---------10-----------10----|
E-----------------------------------------|






e--------------------------------------------------|
b--------------------------------------------------|
g-11-11-9--11--------------------------------------|
d-12-12-10-12--------------------------------------|
a-12-12-10-12--12-11-10----8h9p8h9p8---------------|
E-10-10-8--10-----------10-----------10------------|






e--------------------------------------------------|
b--------------------------------------------------|
g-11-11-9--11--------------------------------------|
d-12-12-10-12--------------------------------------|
a-12-12-10-12--12-11-10----8h9p8h9p8---------------|
E-10-10-8--10-----------10-----------10------------|







e----------------------------------------------------------------|
b----------------------------------------------------------------|
g------------5---------------5---------------5---------------5---|
d--7-7-7-----5--5----7-7-7---5--5---7-7-7----5--5---7-7-7----5--5|
a--7-7-7-----3--5----7-7-7---3--5---7-7-7----3--5---7-7-7----3--5|
E--5-5-5--------3----5-5-5------3---5-5-5-------3---5-5-5-------3|


e---------------------------|
b---------------------------|
g---------------------------|
d--7---77-77-77-77-7777/----|
a--7---77-77-77-77-7777/----|
E--5---55-55-55-55-5555/----|


then it reapets during the solo



LEGEND: h=hammer on
        p=pull off
        /=slide up
Comments