Cream - Sunshine Of Your Love Chords & Tabs

 

Sunshine Of Your Love Chords & Tabs

Cream Chords & Tabs

Version: 13 Type: Tab 0 ratings
1 star 2 stars 3 stars 4 stars 5 stars
comments

Sunshine Of Your Love Tab

Artist: Cream
Title: Sunshine Of Your Love
Tabbed by: Stephen Brown--(stephen_b_2002@hotmail.com) 


Intro 1
                                   ~~~~~~~~~
e----------------------|---------------------------|
b----------------------|---------------------------|
g----------------------|---------------------------|
d-12-12-10-12----------|---------------------------|  
a--------------12--11--|--10-------8---------------|
e----------------------|-------10-----------10-10--|
       
Intro 2
                                   ~~~~~~~~~
e----------------------|---------------------------|
b----------------------|---------------------------|
g-11-11-9--11----------|-------12--10--------------|   
d-10-10-8--10----------|-------12-----------12-----|
a-12-12-10-12--12--11--|--10-------------------10--|
e-10-10-8--10----------|---------------------------|

Verse

e----------------------|
b----------------------|
g----------------------|
d--7--7-7---10---5-----|  
a--7--7-7---10---5-----|
e--5--5-5---8----3-----|

Chorus

e----------------------|-----------------------|
b----------------------|-----------------------|
g----------------------|-----------------------|  
d--7--7-7---10---5--55-|-55-55-55-55-55-55-----|
a--7--7-7---10---5--55-|-55-55-55-55-55-55-----|
e--5--5-5---8----3--33-|-33-33-33-33-33-33-----|

Solo

-----------------------------------------------------------------------------
------------------------12----------------------------------------------------
--b12--b12-------12-b12----b12---12--b12----------b9p7--9--7--b9--7-----------
------------------------------------------------------------------------------
------------------------------------------------------------------------------
------------------------------------------------------------------------------
          ~~~~~~                        ~~~~~~~~                   ~~~~~~~~~  

------------------------------------------------------------------------------
-------------9----9-----------------------------------------------------------
-------7h9--b9---b9----7h9p7-----------b10---b10---b10------------------------
--7h9-------------------------------------------------------------------------
------------------------------------------------------------------------------
------------------------------------------------------------------------------
                            ~~~~~~~~~~                                        

------------------------------------------------------------------------------
------------------------------------------------------------------------------
--b10----b10----------10--7--b9-----7---------b9------------7h9---b9----------
---------------------------------9--------------------7h9---------------9-----
------------------------------------------------------------------------------
------------------------------------------------------------------------------
             ~~~~~~~                  ~~~~~~                                  
[ Tab from: http://www.guitartabs.cc/tabs/c/cream/sunshine_of_your_love_tab_ver_13.html ]
------------------------------------------------------------------------------
----------------------------------------13------------------------------------
--7hb9---b9--b9--7--9---7h9--7----------14-----12--10--11------10-------------
-----------------------------------------------------------12------12p10---12-
------------------------------------------------------------------------------
------------------------------------------------------------------------------
                               ~~~~~~~     ~~~                                

--------------10--------------------------------------------------------------
-------------------------------------------13---------------------------------
--10h11------------b10-------10--b12-----------b12--12--10------12---12/14----
-------------------------12---------------------------------------------------
------------------------------------------------------------------------------
------------------------------------------------------------------------------
        ~~~~~                        ~~~~~                ~~~~~               

-------------------------------10---------------------------------------------
--13-------------------10--10-------------------------------------------------
------14/12--10---b12--------------b12--10------b10---------------------------
--------------------------------------------12--------12----------------------
-----------------------------------------------------------12-----------------
------------------------------------------------------------------------------
                                                             ~~~~~~           

------------------------------------------------------------------------------
---------------------------10--12--------------13------13--13h15--13----------
--------------10----10-----10--12--12/14-----------14-----------------14/12---
--10----10----10h12-10h12-----------------------------------------------------
--10h12-10h12-----------------------------------------------------------------
------------------------------------------------------------------------------
                                        ~~~~~~                                

----------------------------------------------------13------------------------
-----------------------------13------b15--13--15----13---15p13----------------
--b10----12p10----12/14----------14-----------------------------14/12--b10----
------------------------------------------------------------------------------
------------------------------------------------------------------------------
------------------------------------------------------------------------------
                       ~~~~~                                                  

------------------------------------------------------------------------------
---------------------------13---13----13--------------------------------------
----------12--10---12/14--------14----14---14/12--b10-------------------------
--12--12------------------------------------------------12p10------10h12------
---------------------------------------------------------------12-------------
------------------------------------------------------------------------------

Outro

e----------------------|-------------------------------------|
b----------------------|-------------------------------------|
g----------------------|-------------------------------------|
d--7--7-7---10---5--55-|-55-55-55-55-55-55-55-55-55-55-55-55-|
a--7--7-7---10---5--55-|-55-55-55-55-55-55-55-55-55-55-55-55-|
e--5--5-5---8----3--33-|-33-33-33-33-33-33-33-33-33-33-33-33-|


Order

intro 1  X2
intro 2  X6
intro 1  X3
intro 2  X1
verse    X2
chorus   X1
intro 2  X5
intro 1  X2
intro 2  X2
verse    X2
chorus   X1
solo     X1
intro 1  X1
intro 2  X5
intro 1  X2
intro 2  X2
verse    X3
outro    X1
Comments