Cream - Sunshine Of Your Love Chords & Tabs

 

Sunshine Of Your Love Chords & Tabs

Cream Chords & Tabs

Version: 12 Type: Tab 0 ratings
1 star 2 stars 3 stars 4 stars 5 stars
comments

Sunshine Of Your Love Tab

-------------------------------------------------------------------------------
			Sunshine Of Your Love - Cream
-------------------------------------------------------------------------------
			  
By: Leo Mikinberg

e|---------------------------------------------------------------------------|
B|---------------------------------------------------------------------------|
G|--------------------------------------------------------------------2x-----|
D|------12----12----10----12-------------------------------------------------|
A|------------------------------12----11----10----0----8---------------------|
E|----------------------------------------------------------10---------------|
[ Tab from: http://www.guitartabs.cc/tabs/c/cream/sunshine_of_your_love_tab_ver_12.html ]
e|---------------------------------------------------------------------------|
B|---------------------------------------------------------------------------|
G|--------------------------------------------------------------------4x-----|
D|------7----7----5-------------------0----3---------------------------------|
A|------5----5----3----7----6----5--------------5----------------------------|
E|---------------------5----4----3-------------------------------------------|

e|---------------------------------------------------------------------------|
B|---------------------------------------------------------------------------|
G|--------------------------------------------------------------------2x-----|
D|------12----10----12-------------------------------------------------------|
A|------10----8-----10----12----11----10----0----8---------------------------|
E|----------------------------------------------------10---------------------|

e|---------------------------------------------------------------------------|
B|---------------------------------------------------------------------------|
G|--------------------------------------------------------------------4x-----|
D|---------------------------------------------------------------------------|
A|------7----7----10----5----------------------------------------------------|
E|------5----5----8-----3----------------------------------------------------|
Comments