Cream - Sunshine Of Your Love Chords & Tabs

 

Sunshine Of Your Love Chords & Tabs

Cream Chords & Tabs

Version: 5 Type: Bass Tab 0 ratings
1 star 2 stars 3 stars 4 stars 5 stars
comments

Sunshine Of Your Love Bass Tab

Cream-Sunshine of your love 
Tabbed By Jake Brown 

Intro 1
|-9-9-7-9-----------------------------------------------|
|----------987--5---------------------------------------|
|--------------7---7------------------------------------|
|-------------------------------------------------------|

Intro 2
|-------------------------------------------------------|
|----------987---5--------------------------------------|
|-7-7-5-7------7---7------------------------------------|
|-------------------------------------------------------|

Verse
g---------------------|
d---------------------|
a---------------------|
e--5--55----8----3----|
[ Tab from: http://www.guitartabs.cc/tabs/c/cream/sunshine_of_your_love_btab_ver_5.html ]
chorus
g--------------------|-----------------------|
d--------------------|-----------------------|
a--------------------|-----------------------|
e-5--55----8----3-33-|-33-33-33-33-33-33-----|

outro
g--------------------|-------------------------------------|
d--------------------|-------------------------------------|
a--------------------|-------------------------------------|
e-5--55----8----3-33-|-33-33-33-33-33-33-33-33-33-33-33-33-|

order

intro 1  X2
intro 2  X6
intro 1  X3
intro 2  X1
verse    X2
chorus   X1
intro 2  X5
intro 1  X2
intro 2  X2
verse    X2
chorus   X1
(solo)
intro 1  X3
intro 2  X2
intro 1  X2
verse    X2
chorus   X1
intro 1  X1 
intro 2  X5
intro 1  X2
intro 2  X2
verse    X3
outro    X1

If you have any problems or corrections for this tab plz feel free to send me an
email to jake_luvs_bex@hotmail.com
Comments