Cream - Sunshine Of Your Love Chords & Tabs

 

Sunshine Of Your Love Chords & Tabs

Cream Chords & Tabs

Version: 4 Type: Bass Tab 0 ratings
1 star 2 stars 3 stars 4 stars 5 stars
comments

Sunshine Of Your Love Bass Tab

Artist: Cream
Title: Sunshine Of Your Love
Tabbed by: Stephen Brown--(stephen_b_2002@hotmail.com) 

intro 1

g---------------------|----------------------|
d-12-12-10-12---------|----------------------|
a--------------12--11-|-10-------------------|
e---------------------|-----10---13----10----|

intro 2

g-12-12-10-12---------|----------------------|
d--------------12--11-|-10-------------------|
a---------------------|-----10---13----10----|
e---------------------|----------------------|

Verse

g---------------------|
d---------------------|
a---------------------|
e--5--55----8----3----|

chorus
[ Tab from: http://www.guitartabs.cc/tabs/c/cream/sunshine_of_your_love_btab_ver_4.html ]
g--------------------|-----------------------|
d--------------------|-----------------------|
a--------------------|-----------------------|
e-5--55----8----3-33-|-33-33-33-33-33-33-----|

outro

g--------------------|-------------------------------------|
d--------------------|-------------------------------------|
a--------------------|-------------------------------------|
e-5--55----8----3-33-|-33-33-33-33-33-33-33-33-33-33-33-33-|

order

intro 1  X2
intro 2  X6
intro 1  X3
intro 2  X1
verse    X2
chorus   X1
intro 2  X5
intro 1  X2
intro 2  X2
verse    X2
chorus   X1
(solo)
intro 1  X4
intro 2  X2
intro 1  X2
verse    X2
chorus   X1
intro 1  X1 
intro 2  X5
intro 1  X2
intro 2  X2
verse    X3
outro    X1
Comments