Cream - Sunshine Of Your Love Chords & Tabs

 

Sunshine Of Your Love Chords & Tabs

Cream Chords & Tabs

Version: 3 Type: Bass Tab 0 ratings
1 star 2 stars 3 stars 4 stars 5 stars
comments

Sunshine Of Your Love Bass Tab

this song is fun and easy to play but the other tabs are wrong.
it is simply...

verse
riff 1
G-----------------------------------------------------
D--1212-10-12-----------------------------------------
A------------12-11-10---------------------------------
E--------------------10--13-10------------------------
[ Tab from: http://www.guitartabs.cc/tabs/c/cream/sunshine_of_your_love_btab_ver_3.html ]
riff 2
G--1212-10-12-----------------------------------------
D------------12-11-10---------------------------------
A--------------------10--13-10------------------------
E-----------------------------------------------------

chorus
G-----------------------------------------------------
D-----------------------------------------------------
A------3--------3--------3----------------------------
E---55---3---55---3---55--3--5-55-5-55-5-55-5-55-5----

and thats how it's done.

tabbed by Chris
leroythebassman@hotmail.com
Comments