Cream - Sunshine Of Your Love Chords & Tabs

 

Sunshine Of Your Love Chords & Tabs

Cream Chords & Tabs

Version: 2 Type: Bass Tab 6 ratings
1 star 2 stars 3 stars 4 stars 5 stars
comments

Sunshine Of Your Love Bass Tab

Cream - Sunshine of your Love
tabbed by Dennis Drögemüller
Member of the Bass Tab Archive Tabbing Army

The existing tab was completly wrong, so i wrote a new one.
First some comments: Play standard tuning (E,A,D,G).Jack Bruce usually 
plays fretless bass, so his sound may differ from yours. For the 
articulation, take the record and listen to it. I'm not 100% sure 
about everything (Riff 4 might be kind of incorrect), but it is 
pretty close...

Intro
|-7-7-5-7-------------------------|
|-----------7-6-5---------3-------|
|-----------------------5-----5---|
|---------------------------------|
  1 + 2 + 3 + 4 + 1 + 2 + 3 + 4 +

Riff 1/Verse/Solo
|---------------------------------|
|-----------7-6-5---------3-------|
|-5-5-3-5---------------5-----5---|
|---------------------------------|
  1 + 2 + 3 + 4 + 1 + 2 + 3 + 4 +
[ Tab from: http://www.guitartabs.cc/tabs/c/cream/sunshine_of_your_love_btab_ver_2.html ]
Riff 2/Verse/Solo
|---------------------------------|
|-5-5-3-5-------------------------|
|-----------5-4-3---------1-------|
|-----------------------3-----3---|
  1 + 2 + 3 + 4 + 1 + 2 + 3 + 4 +

Riff 3/Chorus
|---------------------------------|
|---------------------------------|
|-----------------3---------------|
|-5--55-------------------3-------|
  1 + 2 + 3 + 5 + 1 + 2 + 3 + 4 +

Riff 4/Chorus
|---------------------------------|
|---------------------------------|
|-----------------------------3-4-|
|-5--55--55--55--55-5-5-5-5-5-----|
  1 + 2 + 3 + 4 + 1 + 2 + 3 + 4 +

Outro
|---------------------------------|
|---------------------------------|
|---------------------------------|
|-5--55--55--55--55--55--55--55---|
  1 + 2 + 3 + 4 + 1 + 2 + 3 + 4 +


System

Intro 2x
Riff1 6x Verse
Riff2 2x
Riff1 2x
Riff3 3x Chorus
Riff4 1x
Riff1 5x Verse
Riff2 2x
Riff1 2x
Riff3 3x Verse
Riff4 1x
Riff1 4x Solo
Riff2 2x
Riff1 2x
Riff3 3x
Riff4 1x
Riff1 6x Verse
Riff2 2x
Riff1 2x
Riff3 5x Chorus
Outro Fade out

Maybe, the system looks a little bit complicate first, but it is quite 
easy! For comments, suggestions or anything else mail to zero1000@gmx.net

4-String rocks!!!

Comments