Cream - Strange Brew Chords & Tabs

 

Strange Brew Chords & Tabs

Cream Chords & Tabs

Version: 7 Type: Tab 0 ratings
1 star 2 stars 3 stars 4 stars 5 stars
comments

Strange Brew Tab

                            CREAM
                         STRANGE BREW

STANDARD TUNING
EADGBe


---3h5----3h5-3---------------------------|
-----------------3b---3-------------------|
--------------------5---5b----8p7p5-------|
------------------------------------7-----|
------------------------------------------|
------------------------------------------|

[ Tab from: http://www.guitartabs.cc/tabs/c/cream/strange_brew_tab_ver_7.html ]
---8p5---8p5---------------------8-5---|
-------------8-5---------------5-------|
-----------------7p5-------5s7---------|
---------------------7-----------------|
---------------------------------------|
---------------------------------------|

strange brew killin whats inside of you
----------5-3----------------------|
------5b------5-3------------------|
------------------5----------------|
--------------------2--------------|
-----------------------------------|
-----------------------------------|

oh whatcha gonna do
--5b--5p3--------------|
----------5-3----------|
--------------5--------|
----------------2------|
-----------------------|
-----------------------|

then there a solo coming up
that is all i have so far
this is a good basic blues song
peace
Comments