Cream - Spoonful Chords & Tabs

 

Spoonful Chords & Tabs

Cream Chords & Tabs

Version: 1 Type: Tab 0 ratings
1 star 2 stars 3 stars 4 stars 5 stars
comments

Spoonful Tab

   
Cream

Spoonful

Tabbed by:ECISGOD

Words and Music by:Willie Dixon




e------------------------------------------------|
b-8b----------------8~~~~-------8~~~~------8~~~~-|
g------9~~~~--7--9--------9-----------9----------|
d------------------------------------------------|
a------------------------------------------------|
E------------------------------------------------|

e-------------------------------------------------|
b--------------8~~~~------8~~~~-------8~~~~-------|
g-9~~~~--7--9--------9-----------9-----------9~~~~|
d-------------------------------------------------|
a-------------------------------------------------|
E-------------------------------------------------|
[ Tab from: http://www.guitartabs.cc/tabs/c/cream/spoonful_tab.html ]
                         W/Bar-------------------->
e-------------------------------------------------|
b------------------------8~~~~~~~~~~~~~~~~~~~~~~~~|
g-7h9--------------------9~~~~~~~~~~~~~~~~~~~~~~~~|
d------------------------9~~~~~~~~~~~~~~~~~~~~~~~~|
a-------------------7----7~~~~~~~~~~~~~~~~~~~~~~~~|
E-------------------------------------------------|


e------------------------------------------------|
b-------------------------------------------7--9-|
g-9-9Bb~~~~~--------9--7------------7/9----------|
d------------------------9-----------------------|
a-----------------------------7------------------|
E------------------------------------------------|


b-1/4 bend

Bb-1 1/2 bend

~-vibrato

/-slide down

h-hammer on
Comments